Song name
# A B C D E F G H I J K L M N O P Q R S T U V W X Y Z

Fra Lippo Lippi - Some People tab

SOME PEOPLE by Fra Lippo Lippi


INTRO:

guitar 1: G-D-C9--(2x)

guitar 2:

e|-10--10-8-7-8-10-10/12-8-10-----------------------------------|
B|-----------------------------10/12-10-8-10-8-10/12-10-8-------|
G|--------------------------------------------------------9-7---| 2x
D|--------------------------------------------------------------|
A|--------------------------------------------------------------|
E|--------------------------------------------------------------|


VERSE:

guitar 1: G-D-C9--

guitar 2: G-D-e|---------------------------------|
              B|-10/12-10-8-10-8-10/12-10-8------|
              G|----------------------------9-7--|
              D|---------------------------------|
              A|---------------------------------|
              E|---------------------------------|


CHORUS: G-D-C9--
         G            D              C9
 Tell me why, tell me why there's no sun in your sky
         G            D              C9
 Tell me why, tell me why there's no love in your eyes
         G            D              C9
 Tell me why, tell me why there's no sun in your sky
         G            D              C9
 Tell me why, tell me why there's no love in your eyes


G-D-C9--(2x)

e|-10--10-8-7-8-10-10/12-8-10-----------------------------------|
B|-----------------------------10/12-10-8-10-8-10/12-10-8-------|
G|--------------------------------------------------------9-7---| 2x
D|--------------------------------------------------------------|
A|--------------------------------------------------------------|
E|--------------------------------------------------------------|


VERSE ule..


CHORUS: G-D-C9--
         G            D              C9
 Tell me why, tell me why there's no sun in your sky
         G            D              C9
 Tell me why, tell me why there's no love in your eyes
         G            D              C9
 Tell me why, tell me why there's no sun in your sky
         G            D              C9
 Tell me why, tell me why there's no love in your eyes


ADLIB: Am--C9--;(3x) Am-C9-D


CHORUS: G-D-C9--
         G            D              C9
 Tell me why, tell me why there's no sun in your sky
         G            D              C9
 Tell me why, tell me why there's no love in your eyes
         G            D              C9
 Tell me why, tell me why there's no sun in your sky
         G            D              C9
 Tell me why, tell me why there's no love in your eyes

....fade........

NITRAM
06-06-08
06:24 PM
Tap to rate this tab
# A B C D E F G H I J K L M N O P Q R S T U V W X Y Z