Song name
# A B C D E F G H I J K L M N O P Q R S T U V W X Y Z

Fra Lippo Lippi - Beauty And Madness tab

-------------------------------------------------------------------------------
			     Beauty and Madness - Fra Lippo Lippi
-------------------------------------------------------------------------------

#This tab is not yet complete.. 
#I have tabbed upto some part of the chorus..

Tabbed by: chikano

Tuning: normal

INTRO:

e|------0-----4-h5-|------4-----4---|2---4-5-----4-5-|----2----4--2-|
B|5---5---5--------|5---5---5-----5-|--3-----5-------|3-----3-------|
G|--4-------4------|--4-------4-----|----------4-----|--2-----------|
D|0----------------|----------------|0---------------|--------------|
A|-----------------|4---------------|--------4-------|2-------------|
E|-----------------|----------------|----------------|--------------|

e|------5----------------|----0--------0-------0---||
B|5---5-----2-3-5-3-2h3--|------0--------0-------0-||
G|--4--------------------|1-------2--------1-------||
D|-----------------------|--2--------0-------0-----||
A|4---------2-2-2-2-2----|-------------------------||
E|-----------------------|0-------2--------4-------||

VERSE:

e|------0-----4-h5-|------4-----4---|2---4-5-----4-5-|----2----4--2-|
B|5---5---5--------|5---5---5-----5-|--3-----5-------|3-----3-------|
G|--4-------4------|--4-------4-----|----------4-----|--2-----------|
D|0----------------|----------------|0---------------|--------------|
A|-----------------|4---------------|--------4-------|2-------------|
E|-----------------|----------------|----------------|--------------|
     
e|------5----------------|----0--------0-------0---||
B|5---5-----2-3-5-3-2h3--|------0--------0-------0-||
G|--4--------------------|1-------2--------1-------||
D|-----------------------|--2--------0-------0-----||
A|4---------2-2-2-2-2----|-------------------------||
E|-----------------------|0-------2--------4-------||

e|------0-----4-h5-|------4-----4---|2---4-5-----4-5-|----2----4--2-|
B|5---5---5--------|5---5---5-----5-|--3-----5-------|3-----3-------|
G|--4-------4------|--4-------4-----|----------4-----|--2-----------|
D|0----------------|----------------|0---------------|--------------|
A|-----------------|4---------------|--------4-------|2-------------|
E|-----------------|----------------|----------------|--------------|

e|------5----------------|----0--------0-------0---||
B|5---5-----2-3-5-3-2h3--|------0--------0-------0-||
G|--4--------------------|1-------2--------1-------||
D|-----------------------|--2--------0-------0-----||
A|4---------2-2-2-2-2----|-------------------------||
E|-----------------------|0-------2--------4-------||

CHORUS:

e|--4-5-7-5-5-----5-5-----5-5-----5/9-5-h7-7-------------12--------------|
B|5-------------3-------3-------3--------------7h9---7h9------7h10---7h9-|
G|------------2-------2-------2--------------9-9----9-9-----9-9----9-9---|
D|----------0------------------------------------------------------------|
A|4-----------------4-------2--------------------------------------------|
E|-----------------------------------------------------------------------|

#kindly help me to complete these tab.. 
#thanks..

| /  slide up
| h  hammer-on
===============================================================================
Tap to rate this tab
# A B C D E F G H I J K L M N O P Q R S T U V W X Y Z