Song name
# A B C D E F G H I J K L M N O P Q R S T U V W X Y Z

Fra Lippo Lippi - Beauty And Madness tab

-------------------------------------------------------------------------------
        Beauty And Madness - Fra Lippo Lippi
-------------------------------------------------------------------------------
Tabbed by:Spylanzer
E-mail:spylanzer@gmail.com 
       This is 100% accurate

Tuning:E-A-D-G-B-E standard 
       capo on 1st fret

e|----------------4-5--------------------------------------------------------|
B|--5------5---5--------------5---5------------------------------------------|
G|-------4---4-------------4-------------------------------------------------|
D|-----7-----------------7--------7------------------------------------------|
A|--4-----------------4------------------------------------------------------|
E|---------------------------------------------------------------------------|

e|--0h2--------5------------5------------------------------------------------|
B|--3-------3-----5------5------3--------------------------------------------|
G|-------2------------2------------------------------------------------------|
D|--0------------------------------------------------------------------------|
A|----------------4-------------2--------------------------------------------|
E|---------------------------------------------------------------------------|

e|--4------2---------------------------0-------------------------------------|
B|--5------3------5-----------2--3--------------3------2---0-----------------|
G|-----------------------2-------------------2----2--------------------------|
D|---------------------------------------------------------------------------|
A|----------------4--------------------2-------------------------------------|
E|---------------------------------------------------------------------------|

e|---------------------------------------------------------------------------|
B|---------------------------------------------------------------------------|
G|--------1--2--------2------------------------------------------------------|
D|------2----------2------4/6------------------------------------------------|
A|----2---------0------------------------------------------------------------|
E|--0---------------------0--------------------------------------------------|



************************************

| /   slide up
| \   slide down
| h   hammer-on
| p   pull-off
| ~   vibrato
| +   harmonic
| x   Mute note
| b   Bend
| pb  Pre-bend
| br  Bend release
| pbr Pre-bend release
| brb Bend release bend

************************************
Tap to rate this tab
 
# A B C D E F G H I J K L M N O P Q R S T U V W X Y Z