Song name
# A B C D E F G H I J K L M N O P Q R S T U V W X Y Z

Fractal Gates - The Eclipse tab

-------------------------------------------------------------------------------
			  The Eclipse - Fractal Gates
-------------------------------------------------------------------------------
Tabbed by: Wraith
Email: wraithofvolsunga@hotmail.com

Tuning:EADGBe

eighth notes
e|---------------------------------------------------------------------------|
B|---------------------------------------------------------------------------|
G|------------4-2-2-2-2-2-2-4-4-----------4-2-2-2-2-4-5-4-2-4----------------|
D|--2-2-2-2-2-------------------2-2-2-2-2------------------------------------|
A|---------------------------------------------------------------------------|
E|---------------------------------------------------------------------------|

e|---------------------------------------------------------------------------|
B|---------------------------------------------------------------------------|
G|------------4-2-2-2-2-2-2-4-4-----------4-2-2-2-2-0-2-2-0------------------|
D|--2-2-2-2-2-------------------2-2-2-2-2-------------------3----------------|
A|---------------------------------------------------------------------------|
E|---------------------------------------------------------------------------|


That's the main riff of the song, I think I might have screwed up a little bit at the 
there. I hope to get the rest of the song done soon. If anyone has corrections, feel free 
contact me: wraithofvolsunga@hotmail.com

band website: http://www.fractal-gates.com/
Tap to rate this tab
# A B C D E F G H I J K L M N O P Q R S T U V W X Y Z