Guitaretab - guitar tabs
Song name
# A B C D E F G H I J K L M N O P Q R S T U V W X Y Z

Fraeulein Wunder - Wenn Ich Ein Junge Waer tab

Intro (0:00) (Distortion Guitar)
Palm muted>>>>>>>>>>>>>>>>>>>>>>>>>
e|----------------|----------------|
h|----------------|----------------|
G|----------------|----------------|
D|----------------|----------------|
A|----------------|----------------|
E|5-5-5-5-5-5-5-5-|5-5-5-5-5-5-5-5-|


Vers Part 1 (0:03)
  >>>>>>>>>>>>>>>>>>>>>>>>>>>>>>>>>>>>>>>>>>>>>>>>>>|
e|----------------|----------------|----------------|----------------|
h|----------------|----------------|----------------|----------------|
G|----------------|----------------|----------------|----------------|
D|----------------|----------------|----------------|----------------|    4x
A|----------------|----------------|8-8-8-8-8-8-8-8-|--9-9-9-9-9-9-9-|  
E|5-5-5-5-5-5-5-5-|8-8-8-8-8-8-8-8-|----------------|--7-7-7-7-7-7-7-|


Pre-Chorus (0:26)
  >>>>>>>>>|       >>>>>>>>>|       >>>>>>>>>|       >>>>>>>>>|
e|----------------|----------------|----------------|----------------|
h|----------------|----------------|----------------|----------------|
G|----------------|----------------|----------------|----------------|
D|----------------|----------------|----------7-7-7-|----------------|
A|----------7-7-7-|----------101010|5-5-5-5-5-5-5-5-|8-8-8-8-8-9-9-9-|  
E|5-5-5-5-5-5-5-5-|8-8-8-8-8-8-8-8-|----------------|----------7-7-7-|

  >>>>>>>>>|       >>>>>>>>>|       >>>>>>>>>|       
e|----------------|----------------|----------------|----------------|
h|----------------|----------------|----------------|----------------|
G|----------------|----------------|----------------|9-9-9-9-9-9-9-9-|
D|----------------|----------------|----------7-7-7-|9-9-9-9-9-9-9-9-|
A|----------7-7-7-|----------101010|5-5-5-5-5-5-5-5-|7-7-7-7-7-7-7-7-|  
E|5-5-5-5-5-5-5-5-|8-8-8-8-8-8-8-8-|----------------|----------------|


Chorus (0:39)
  F5               D5               G5               E5
e|----------------|----------------|----------------|----------------|
h|----------------|----------------|----------------|----------------|
G|1010101010101010|7-7-7-7-7-7-7-7-|1212121212121212|9-9-9-9-9-9-9-9-|
D|1010101010101010|7-7-7-7-7-7-7-7-|1212121212121212|9-9-9-9-9-9-9-9-|    2x
A|8-8-8-8-8-8-8-8-|5-5-5-5-5-5-5-5-|1010101010101010|7-7-7-7-7-7-7-7-|
E|----------------|----------------|----------------|----------------|

  F5               G5               E5               F5      G5
e|----------------|----------------|----------------|----------------|
h|----------------|----------------|----------------|----------------|
G|1010101010101010|1212121212121212|9-9-9-9-9-9-9-9-|1010101012121212|
D|1010101010101010|1212121212121212|9-9-9-9-9-9-9-9-|1010101012121212|
A|8-8-8-8-8-8-8-8-|1010101010101010|7-7-7-7-7-7-7-7-|8-8-8-8-10101010|
E|----------------|----------------|----------------|----------------|

e|----------------|----------------|
h|----------------|----------------|
G|1414141414141414|14\-------------|
D|1414141414141414|14\-------------|
A|1212121212121212|12\-------------|
E|----------------|----------------|

[ Tab from: http://www.guitaretab.com/f/fraeulein-wunder/114728.html ]
Vers Part 2 (0:59) (Clean Guitar)
  A                C                F                H
e|5---5---5---5---|8---8---8---8---|8---8---8---8---|7---7---7---7---|
h|5---5---5---5---|8---8---8---8---|10--10--10--10--|7---7---7---7---|
G|6---6---6---6---|9---9---9---9---|10--10--10--10--|8---8---8---8---|
D|7---7---7---7---|10--10--10--10--|10--10--10--10--|9---9---9---9---|  2x
A|----------------|----------------|----------------|----------------|
E|----------------|----------------|----------------|----------------|


Vers Part 1 (1:11) (Distortion Guitar)

  Palm muted>>>>>>>>>>>>>>>>>>>>>>>>>>>>>>>>>>>>>>>>|
e|----------------|----------------|----------------|----------------|
h|----------------|----------------|----------------|----------------|
G|----------------|----------------|----------------|----------------|
D|----------------|----------------|----------------|----------------|    2x
A|----------------|----------------|8-8-8-8-8-8-8-8-|--9-9-9-9-9-9-9-|  
E|5-5-5-5-5-5-5-5-|8-8-8-8-8-8-8-8-|----------------|--7-7-7-7-7-7-7-|

Pre-Chorus (1:23)

Chorus (1:35)

Vers Part 1 (1:55) 3x

And then:

  Palm muted>>>>>>>>>>>>>>>>>>>>>>>>>>>>>>>>>>>>>>>>|
e|----------------|----------------|----------------|----------------|
h|----------------|----------------|----------------|----------------|
G|----------------|----------------|----------------|----------------|
D|----------------|----------------|----------------|----------------|
A|----------------|----------------|8-8-8-8-8-8-8-8-|--9-9-9-9-------|  
E|5-5-5-5-5-5-5-5-|8-8-8-8-8-8-8-8-|----------------|--7-7-7-7-------|

Chorus (2:19)

Last Chorus (2:40)
  F5               D5               G5               E5
e|----------------|----------------|----------------|----------------|
h|----------------|----------------|----------------|----------------|
G|1010101010101010|7-7-7-7-7-7-7-7-|1212121212121212|9-9-9-9-9-9-9-9-|
D|1010101010101010|7-7-7-7-7-7-7-7-|1212121212121212|9-9-9-9-9-9-9-9-| 2x
A|8-8-8-8-8-8-8-8-|5-5-5-5-5-5-5-5-|1010101010101010|7-7-7-7-7-7-7-7-|
E|----------------|----------------|----------------|----------------|

  F5               G5               E5               F5      G5
e|----------------|----------------|----------------|----------------|
h|----------------|----------------|----------------|----------------|
G|1010101010101010|1212121212121212|9-9-9-9-9-9-9-9-|1010101012121212|
D|1010101010101010|1212121212121212|9-9-9-9-9-9-9-9-|1010101012121212|
A|8-8-8-8-8-8-8-8-|1010101010101010|7-7-7-7-7-7-7-7-|8-8-8-8-10101010|
E|----------------|----------------|----------------|----------------|
  A5
e|----------------|----------------|----------------|----------------|
h|----------------|----------------|----------------|----------------|
G|1414141414141414|1414141414141414|1414141414141414|14\-------------|
D|1414141414141414|1414141414141414|1414141414141414|14\-------------|
A|1212121212121212|1212121212121212|1212121212121212|12\-------------|
E|----------------|----------------|----------------|----------------|
Related for Wenn Ich Ein Junge Waer tab
Advertisement will be closed in 10 seconds