Song name
# A B C D E F G H I J K L M N O P Q R S T U V W X Y Z

Fraeulein Wunder - Mein Herz Ist Gift Fuer Dich tab

-------------------------------------------------------------------------------
	             Frulein Wunder - Mein Herz Ist Gift Fr Dich
-------------------------------------------------------------------------------

Tabbed by: -Josii-
Email: crazyrockgirl@web.de

Page: www.myspace.com/killermauz




Intro (2x)                             
e--------------------------------|--
B--------------------------------|--
G------9----11---9---9----11--9--|--
D---7----7-----7---7---7---------|--
A--------------------------------|--
E--------------------------------|--



Verse 1:
e--------------------------------|-------------------------------|--
B--------------------------------|-------------------------------|--
G------9----11---9---9----11--9--|-----9----11---9---9----11--9--|--
D---7----7-----7---7---7---------|-------------------------------|--
A--------------------------------|--8----8-----8---8---8---------|--
E--------------------------------|-------------------------------|--

e-----------------------------------|---------------------------------------|--
B-----------------------------------|---------------------------------------|--
G------9----11----9----9-----11--9--|------9-----11----9-----9--------------|--
D-----------------------------------|---------------------------------------|--
A-----------------------------------|--10----10-----10---10---10---11---11--|--
E--10----10----10---10---10---------|---------------------------------------|--



Intro (2x)                             
e--------------------------------|--
B--------------------------------|--
G------9----11---9---9----11--9--|--
D---7----7-----7---7---7---------|--
A--------------------------------|--
E--------------------------------|--



Verse 2
e--------------------------------|-------------------------------|--
B--------------------------------|-------------------------------|--
G------9----11---9---9----11--9--|-----9----11---9---9----11--9--|--
D---7----7-----7---7---7---------|-------------------------------|--
A--------------------------------|--8----8-----8---8---8---------|--
E--------------------------------|-------------------------------|--

e-----------------------------------|---------------------------------------------------|--
B-----------------------------------|---------------------------------------------------|--
G------9----11----9----9-----11--9--|---------------------------------------------------|--
D-----------------------------------|---------------------------------------------------|--
A-----------------------------------|--10-10-10-10-10-10-10-10-11-11-11-11-11-11-11-11--|--
E--10----10----10---10---10---------|---------------------------------------------------|--



Pre
e-------------------------|---------------|--
B-------------------------|---------------|--
G---10-----12----14-------|----10-----12--|--
D---10-----12----14---12--|----10-----12--|--
A---8------10----12---12--|----8------10--|--
E---------------------10--|---------------|--



Chorus
e------------------------|----------------------------|--
B------------------------|----------------------------|--
G--------10----------12--|--------10------------------|--
D---7----10---10-----12--|---7----10---10----12---14--|--
A---7----8----10-----10--|---7----8----10----12---14--|--
E---5---------8----------|---5---------8-----10---12--|--

e-----------------------------|-----------------------|--
B-----------------------------|-----------------------|--
G--------10-------------------|--------10-------------|--
D---7----10---10-----12---14--|---7----10---10----12--|--
A---7----8----10-----12---14--|---7----8----10----10--|--
E---5---------8------10---12--|---5---------8---------|--

e-----------------------------|-----------------------|--
B-----------------------------|-----------------------|--
G--------10-------------------|--------10-------------|--
D---7----10---10-----12---14--|---7----10---10----12--|--
A---7----8----10-----12---14--|---7----8----10----10--|--
E---5---------8------10---12--|---5---------8---------|--



Intro                             
e--------------------------------|--
B--------------------------------|--
G------9----11---9---9----11--9--|--
D---7----7-----7---7---7---------|--
A--------------------------------|--
E--------------------------------|--



Verse 3
e--------------------------------|-------------------------------|--
B--------------------------------|-------------------------------|--
G------9----11---9---9----11--9--|-----9----11---9---9----11--9--|--
D---7----7-----7---7---7---------|-------------------------------|--
A--------------------------------|--8----8-----8---8---8---------|--
E--------------------------------|-------------------------------|--

e-----------------------------------|---------------------------------------------------|--
B-----------------------------------|---------------------------------------------------|--
G------9----11----9----9-----11--9--|---------------------------------------------------|--
D-----------------------------------|---------------------------------------------------|--
A-----------------------------------|--10-10-10-10-10-10-10-10-11-11-11-11-11-11-11-11--|--
E--10----10----10---10---10---------|---------------------------------------------------|--



Pre
e-------------------------|---------------|--
B-------------------------|---------------|--
G---10-----12----14-------|----10-----12--|--
D---10-----12----14---12--|----10-----12--|--
A---8------10----12---12--|----8------10--|--
E---------------------10--|---------------|--



Chorus
e------------------------|----------------------------|--
B------------------------|----------------------------|--
G--------10----------12--|--------10------------------|--
D---7----10---10-----12--|---7----10---10----12---14--|--
A---7----8----10-----10--|---7----8----10----12---14--|--
E---5---------8----------|---5---------8-----10---12--|--

e-----------------------------|-----------------------|--
B-----------------------------|-----------------------|--
G--------10-------------------|--------10-------------|--
D---7----10---10-----12---14--|---7----10---10----12--|--
A---7----8----10-----12---14--|---7----8----10----10--|--
E---5---------8------10---12--|---5---------8---------|--

e-----------------------------|-----------------------|--
B-----------------------------|-----------------------|--
G--------10-------------------|--------10-------------|--
D---7----10---10-----12---14--|---7----10---10----12--|--
A---7----8----10-----12---14--|---7----8----10----10--|--
E---5---------8------10---12--|---5---------8---------|--



Bridge
e-------------------------|------------|--
B-------------------------|------------|--
G---7-----10--------------|---7-----9--|--
D---7-----10-----10----7--|---7-----9--|--
A---5------8-----10----7--|---5-----7--|--
E-----------------8----5--|------------|--



Chorus
e-----------------------------|-----------------------|--
B-----------------------------|-----------------------|--
G--------10-------------------|--------10-------------|--
D---7----10---10-----12---14--|---7----10---10----12--|--
A---7----8----10-----12---14--|---7----8----10----10--|--
E---5---------8------10---12--|---5---------8---------|--



(Nur Gesang: "Mein Herz ist Gift fr Dich")



(Aha, aha, aha KAPUTT! Aha, aha, aha KAPUTT!)
e-----------------------------|-----------------------|--
B-----------------------------|-----------------------|--
G--------10-------------------|--------10-------------|--
D---7----10---10-----12---14--|---7----10---10----12--|--
A---7----8----10-----12---14--|---7----8----10----10--|--
E---5---------8------10---12--|---5---------8---------|--



Chorus
e------------------------|----------------------------|--
B------------------------|----------------------------|--
G--------10----------12--|--------10------------------|--
D---7----10---10-----12--|---7----10---10----12---14--|--
A---7----8----10-----10--|---7----8----10----12---14--|--
E---5---------8----------|---5---------8-----10---12--|--

e-----------------------------|-----------------------|--
B-----------------------------|-----------------------|--
G--------10-------------------|--------10-------------|--
D---7----10---10-----12---14--|---7----10---10----12--|--
A---7----8----10-----12---14--|---7----8----10----10--|--
E---5---------8------10---12--|---5---------8---------|--

e-----------------------------|----------------------------|--
B-----------------------------|----------------------------|--
G--------10-------------------|--------10------------------|--
D---7----10---10-----12---14--|---7----10---10----12-------|--
A---7----8----10-----12---14--|---7----8----10----10-------|--
E---5---------8------10---12--|---5---------8--------------|--



Einding (Intro 2x)                             
e--------------------------------|--
B--------------------------------|--
G------9----11---9---9----11--9--|--
D---7----7-----7---7---7---------|--
A--------------------------------|--
E--------------------------------|--




Falls Ihr Fehler entdeckt, dann bitte einfach eine E-Mail oder bei Myspace schreiben! Danke =)

<3
Tap to rate this tab
# A B C D E F G H I J K L M N O P Q R S T U V W X Y Z