Song name
# A B C D E F G H I J K L M N O P Q R S T U V W X Y Z

Frames - Headlong tab

Headlong
The Frames
Album: For The Birds

Dropped D Tuning

This tab isn't anywhere near perfect it's just to give you an idea of how to play the song.

Listen to the cd for strumming patterns and order of riffs.

Any corrections and improvements welcome.

Intro
e:-------------------------------------------------5--5--5--5---|
B:-------------------------------------------------8--7--8--7---|
G:-------------------------------------------------7--7--7--7---|
D:---------7--4----------------------7--4--/5--/7--5--7--5--7---|
A:---5--4--------5--4--/7--\5--5--4----------------5--5--5--5---|
D:0------------------------------------------------5--5--5--5---|

Verse & Chorus

Not sure about the slide to 7 and 9 here, think sometimes it goes back to 4 and then 2.

e:-------------------5--5-|
B:-------------------8--7-|
G:----2--------------7--7-|
D:----0--------------5--7-|
A:-0--2-/4-/5-/7-/9--5--5-|
D:-0--0--0--0--0--0--5--5-|

Lead in Verse

e:--------------------------|
B:--------------------------|
G:-------9--12--11----------|
D:-9h11---------------------|
A:--------------------------|
D:--------------------------|

That's pretty much it, listen to cd to hear what goes where.
Tap to rate this tab
# A B C D E F G H I J K L M N O P Q R S T U V W X Y Z