Song name
# A B C D E F G H I J K L M N O P Q R S T U V W X Y Z

Frames - Song For Someone tab

Dryin' up in conversation, still
My head was halfway round                the world....
e----0----------------------------------------0---------|
h----5----------------------------------------3---------|
g----5----------------------------------------0---------|
d----3----------------------------------------2---------|
a----0----------------------------------------2---------|
e----x----------------------------------------0---------|


And I wonder if she'll be the very       same
And I wonder if she's gonna break the    waves         Again

e-----0------------------------------------0---------  ---0----0-|
h-----1------------------------------------3---------  ---2----5-|
g-----2------------------------------------0---------  ---2----5-|
d-----3------------------------------------2---------  ---2----3-|
a-----3------------------------------------2---------  ---0----0-|
e-----1------------------------------------0---------  ---x----x-|

Chorus: And if we're all for someone
e-----0-----------------------0-|
h-----1-----------------------2-|
g-----2-----------------------2-|
d-----3-----------------------2-|
a-----3-----------------------0-|
e-----1-----------------------x-|
Tap to rate this tab
# A B C D E F G H I J K L M N O P Q R S T U V W X Y Z