Song name
# A B C D E F G H I J K L M N O P Q R S T U V W X Y Z

Frames - Dream Awake chords

Highlighted       Show chord diagrams
DREAM AWAKE

em         D        C       G   
There's a point in all your dreaming,
em       D             C     G
to every time mean has just deserves,...


     em    D     C     G

e:----------------------------|
B:---8-----7-----5-----3------|
G:---0-----0-----0-----0------|
D:----------------------------|
A:---7-----5-----3-----2------|
E:----------------------------|


          A    G
i had to dream awake..

     A     G

e:---------------|
B:---2-----0-----|
G:---2-----0-----|
D:---------------|
A:---0-----------|
E:---------3-----|



D             F#m           Bm
there's a calling, a calling, a calling,,
Bb  D            F#m   Bm
to everyone, who lost something.


     D     F#m   Bm    Bb

e:---2-----2-----2-----1------|
B:---3-----2-----3-----3------|
G:---2-----2-----4-----3------|
D:---0-----4-----4-----3------|
A:---x-----4-----2-----1------|
E:---x-----2-----x-----x------|


                 A     G
and who had to dream awake...

     A     G

e:---0-----2-----|
B:---2-----0-----|
G:---2-----0-----|
D:---2-----0-----|
A:---0-----2-----|
E:---x-----3-----|


em        D          C   G
there's a fight were not contending...


     em    D     C     G

e:---3-----2-----0-----3------|
B:---0-----3-----1-----0------|
G:---0-----2-----0-----0------|
D:---2-----0-----2-----0------|
A:---2-----x-----3-----2------|
E:---0-----x-----x-----3------|


                 A     G
where we have to dream awake.
            A    G
so take us under now..
          A   G
take us over now..


     A     G

e:---0-----3-----|
B:---2-----0-----|
G:---2-----0-----|
D:---2-----0-----|
A:---0-----2-----|
E:---x-----3-----|
Tap to rate this tab
 
# A B C D E F G H I J K L M N O P Q R S T U V W X Y Z