Song name
# A B C D E F G H I J K L M N O P Q R S T U V W X Y Z

Frames - Perfect Opening Line tab

The perfect opening line that it is

It's just a lie I guess
E---------0-------------0----------0--------3--|
B---------4-------------0----------0--------3--|
G---------4-------------2----------1--------0--|
D---------4-------------2----------2--------0--|
A---------2-------------0----------2--------2--|
E-----------------------------------0--------3-|

So hold it in your hand
E-----------4-------------------------------3---|
B-----------4-------------------------------3---|
G-----------4-------------------------------4---|
D-----------6-------------------------------5---|
A-----------6-------------------------------5---|
E-----------4-------------------------------3---|

And I'll be just curious to see now how you'll make it by yourself when your walking out ahead
E--------------------0-----------------------------------0-----------------------------------0--|
B-------------------4------------------------------------5-----------------------------------2--|
G-------------------4------------------------------------4-----------------------------------4--|
D-------------------4------------------------------------4-----------------------------------4--|
A-------------------2------------------------------------2-----------------------------------2--|
E-----------------------------------------------------------------------------------------------|

yeah-eh ehhh

E---------0-------------4----------3----------|
B---------4-------------4----------3----------|
G---------4-------------4----------4----------|
D---------4-------------6----------5----------|
A---------2-------------6----------5----------|
E------------------------4----------3---------|

Change in Chorus

it's the perfect open---in---en-----------------------------|line
E-----------0------------------0----------------------3-----|
B-----------0-----------------4-----------------------3-----|
G-----------1-----------------4-----------------------4-----|
D-----------2-----------------4-----------------------5-----|
A-----------2-----------------2-----------------------5-----|
E-----------0------------------------------------------3----|
Tap to rate this tab
 
# A B C D E F G H I J K L M N O P Q R S T U V W X Y Z