Song name
# A B C D E F G H I J K L M N O P Q R S T U V W X Y Z

Frames - Dream Awake tab

-------------------------
|Tabbed by: Eagle Mathew|
-------------------------

Song: Dream Awake
Band: The Frames
Album: Burn The Maps



Intro:

e||----------|---------|---------|---------|---------|---------|--------|----------||
B||----------|---------|---------|---------|---------|---------|--------|----------||
G||----------|---------|---------|---------|---------|---------|--------|----------||
D||--5-5-5-5-|-5-5-5-5-|-5-5-5-5-|-4-4-4-4-|-2-2-2-2-|-0-0-0-0-|-0-0-0-0|-0-0-0-0--||
A||--7-7-7-7-|-7-7-7-7-|-7-7-7-7-|-5-5-5-5-|-4-4-4-4-|-1-1-1-1-|-1-1-1-1|-1-1-1-1--||
E||----------|---------|---------|---------|---------|---------|--------|----------||

Guitar 1:

e||----------|---------|---------|---------|---------|----------||
B||----------|---------|---------|---------|---------|----------||
G||----------|---------|---------|---------|---------|----------||
D||--5-5-5-5-|-4-4-4-4-|-2-2-2-2-|-0-0-0-0-|-0-0-0-0-|-0-0-0-0--||
A||--7-7-7-7-|-5-5-5-5-|-4-4-4-4-|-1-1-1-1-|-1-1-1-1-|-1-1-1-1--||
E||----------|---------|---------|---------|---------|----------||

e||----------|---------|---------|---------|---------|----------||
B||----------|---------|---------|---------|---------|----------||
G||----------|---------|---------|---------|---------|----------||
D||--5-5-5-5-|-4-4-4-4-|-2-2-2-2-|-0-0-0-0-|-0-0-0-0-|-0-0-0-0--||
A||--7-7-7-7-|-5-5-5-5-|-4-4-4-4-|-1-1-1-1-|-1-1-1-1-|-1-1-1-1--||
E||----------|---------|---------|---------|---------|----------||

e||----------|---------|---------|---------|---------|---------|---------|---------||
B||----------|---------|---------|---------|---------|---------|---------|---------||
G||----------|---------|---------|---------|---------|---------|---------|---------||
D||----------|---------|---------|---------|---------|---------|---------|---------||
A||--4-4-4-4-|-2-2-2-2-|-2-2-2-2-|-2-2-2-2-|-4-4-4-4-|-2-2-2-2-|-2-2-2-2-|-2-2-2-2-||
E||--5-5-5-5-|-3-3-3-3-|-3-3-3-3-|-3-3-3-3-|-5-5-5-5-|-3-3-3-3-|-3-3-3-3-|-3-3-3-3-|| 


Guitar 2:

e||----------|---------|-8h10-7--|---------|---------|-8h10-7--|---------|----------||
B||----------|---------|---------|---------|---------|---------|---------|----------||
G||----------|---------|---------|---------|---------|---------|-9-8-----|----------||
A||----------|---------|---------|---------|---------|---------|-----9---|----------||
E||----------|---------|---------|---------|---------|---------|---------|----------||


e||---------|-8h10-7--|---------|----------||
B||---------|---------|---------|----------||
G||---------|---------|-9-------|----------||
A||---------|---------|---------|----------||
E||---------|---------|---------|----------||
Tap to rate this tab
 
# A B C D E F G H I J K L M N O P Q R S T U V W X Y Z