Song name
# A B C D E F G H I J K L M N O P Q R S T U V W X Y Z

Frames - Happy chords

Highlighted       Show chord diagrams
                                          Artist - The Frames
                                         *********************
                                              Song - Happy 
                                             **************
                                         Album - Burn The Maps 
                                        ***********************
                                         Tabbed By - Ayreon77
                                        **********************





 I Think this is how he's playing it, bit tricky at first
  A                 G#m         A                 G#m 
[----------------------------------------------------------------------]
[----------------------------------------------------------------------]
[-6-6-6-6--6-6-6-6--4-4-4-4s----6-6-6-6--6-6-6-6--4-4-4-4s-------------]
[-7-7-7-7--7-7-7-7--6-6-6-6\7---7-7-7-7--7-7-7-7--6-6-6-6\7------------]
[-7-7-7-7--6-6-6-6--6-6-6-6\7--h7-7-7-7--6-6-6-6--6-6-6-6\7-And so on--]
[-5-5-5-5--5-5-5-5--4-4-4-4---0-5-5-5-5--5-5-5-5--4-4-4-4--------------]


--------------------------------------------------------------
VERSE 1
********
A                         G#m
Come help me out I'm sick from the fight
A                G#m
from inserting a laugh where there's none
A                  G#m
show me where this joke got tired
A                          G#m
tell me you know cause I'm slow catching on.


--------------------------------------------------------------
VERSE 2
********
A                                      G#m
Your trying to break me down with your tuneless song
A                   G#m
That kept me up all night
A                             G#m
Take me to the fair where the lifeless singers
A                      G#m
Will let you ride up beside them sometimes


--------------------------------------------------------------
CHORUS
*******
F#m                  E    B
  And your putting a line
F#m                           E    B
  where there should be not a line
F#m                 E      B   A
  And your building divides.


--------------------------------------------------------------
VERSE 3
********
A                     G#m
Help cut me out I got caught in the wire
A                  G#m
From believing the filtering downs
A                 G3m
Tell me where the stakes got higher
A                G#m
Goes to show how slow we've become
A                G#m             
Tell me what you see            (these last 2 lines kinda go off rhythm)
A                    G#m
Coz i'm not catching what you say


--------------------------------------------------------------
CHORUS
*******
F#m                  E    B
  And your putting a line
F#m                           E    B
  Where there should be not a line
F#m                 E      B  A
  And your building divides
   A         E    B
To putting a line
A                     E      B A
 Why are you building divides

--------------------------------------------------------------
WEIRD SOLO
--------------------------------------------------------------

CHORUS
*******
F#m                  E    B
  And your putting a line
F#m                           E    B
  Where there should be not a line
F#m                 E      B  A
  And your building divides
   A         E    B
To putting a line
A                     E      B A
 Why are you building divides
A                         E    B
It's some feeling in your life
A                     E      B A
 Why are you building divides
     A         E    B
Your putting a line 
A                      E    B
It's a feeling in your life
A                     E      B A
 Why are you building divides


A  G#m



ENJOY.......
Tap to rate this tab
 
# A B C D E F G H I J K L M N O P Q R S T U V W X Y Z