Song name
# A B C D E F G H I J K L M N O P Q R S T U V W X Y Z

Frames - A Caution To The Birds chords

Highlighted       Show chord diagrams
a caution to the birds-the frames
done by ear
enjoy(:


chords used  Bm      A       E     Esus4     F       G       F#
e------------2-------0-------0-------0-------1-------3-------2
B------------3-------2-------0-------0-------1-------3-------2
G------------4-------2-------1-------2-------2-------4-------3
D------------4-------2-------2-------2-------3-------5-------4
A------------2-------0-------2-------2-------3-------5-------4
E------------2-------X-------0-------0-------1-------3-------2



VERSE:
F          G    F#
The body's not secure,
F            G     F#
the truth will not absorb,
F            G      F#
and this crumbling apart,
F           G        F#
is no good for you all..

CHORUS:

Bm                          A
sound,there's order in the sound,
                     E        Esus4
in sound you don't know


VERSE:
VERSE RIFF:
e|-----------------------------------------|
B|-----------------------------------------|
G|-----------------------------------------|
D|------4----------------4-----------------|
A|--4--------------2h4-------4---2---4---2-|
E|-----------------------------------------|

F               G     F#
with eyes that never look,
F              G      F#
past the time under foot
F               G        F#
and this reading in the cards
F              G        F#
is a caution to the birds

CHORUS:
Bm                          A
sound,there's order in the sound,
                     E        Esus4     (X4)
in sound you don't know

VERSE:
VERSE RIFF:
e|-----------------------------------------|
B|-----------------------------------------|
G|-----------------------------------------|
D|------4----------------4-----------------|
A|--4--------------2h4-------4---2---4---2-|
E|-----------------------------------------|

INSTRUMENTAL VERSE:
F     G     F#   (same as verse)




INSTRUMENTAL CHORUS:
Bm   A    E    Esus4  (same as chorus)

SOLO:
e|-----------------------|
B|-----------------------|
G|--9--8-----7--6-----6--|
D|--------9--------7-----|
A|-----------------------|
E|-----------------------|


Tap to rate this tab
# A B C D E F G H I J K L M N O P Q R S T U V W X Y Z