Guitaretab - guitar tabs
Song name
# A B C D E F G H I J K L M N O P Q R S T U V W X Y Z

Frames - Revelate tab

Revelate by the Frames
Excellent song by a Brilliant Band
Tabbed by:steve.16.lp
Tuning Standard

Intro: Both Guitars
       C#m           E           A             F#m
|---4--4-4-4-4----0------0----5--5-5-5-5----2-2-2-2-2-2--------------|
|---5--5-5-5-5----0------0----5--5-5-5-5----2-2-2-2-2-2--------------|
|---6--6-6-6-6----1----1-1----6--6-6-6-6----3-3-3-3-3-3--------------|
|---6--6-6-4-6----2--2-2-2----7--7-7-7-7----4-4-4-4-4-4--------------|
|---4--4-4-4-4----2--2-2-2----7--7-7-7-7----4-4-4-4-4-4--------------|
|---4--4-4-4-4----0--0-0-0----5--5-5-5-5----2-2-2-2-2-2--------------|
    /  / \ / \    /  / / \    /  / / / \    / / / \ / \

Guitar 1 plays twice
       C#m           E           A             F#m
|---4--4-4-4-4----0------0----5--5-5-5-5----2-2-2-2-2-2--------------|
|---5--5-5-5-5----0------0----5--5-5-5-5----2-2-2-2-2-2--------------|
|---6--6-6-6-6----1----1-1----6--6-6-6-6----3-3-3-3-3-3--------------|
|---6--6-6-4-6----2--2-2-2----7--7-7-7-7----4-4-4-4-4-4--------------|
|---4--4-4-4-4----2--2-2-2----7--7-7-7-7----4-4-4-4-4-4--------------|
|---4--4-4-4-4----0--0-0-0----5--5-5-5-5----2-2-2-2-2-2--------------|
    /  / \ / \    /  / / \    /  / / / \    / / / \ / \


Guitar 2

|--------------------------------------------------------------------|
|--------------------------------------------------------------------|
|---8(9)''''''''-8(9)''''''''8(9)''''''''''8(9)'''''''---------------|
|--------------------------------------------------------------------|
|--------------------------------------------------------------------|
|--------------------------------------------------------------------|

|--------------------------------------------------------------------|
|---7(9)'''''''''7(9)'''''''7(9)''''''''''7(9)''''''''---------------|
|--------------------------------------------------------------------|
|--------------------------------------------------------------------|
|--------------------------------------------------------------------|
|--------------------------------------------------------------------|


My simple slant, this broken chant,
My human faith, my revelate,

             Are  you  so  far  from  me  this  day
|-----------------------------------------------------------------|
|-----------4-5-----------------4-5---4-5-4-5--9------------------|
|-----------------------------------------------------------------|
|------6----------------------------------------------------------|
|---4----------------------4--------------------------------------|
|-----------------------5-----------------------------------------|
         that you can say    my     revelate
|-----------------------------------------------------------------|
|-----------4-5---------------------------------------------------|
|------------------------------6--6--6--6--6-6----3-3-3-----------|
|------6-----------------------7--7--7--7--7-7----4-4-4-----------|
|---4----------------------4---7--7--7--7--7-7----4-4-4-----------|
|-----------------------5------5--5--5--5--5-5----2-2-2-----------|

Guitar 1 plays twice
       C#m           E           A             F#m
|---4--4-4-4-4----0------0----5--5-5-5-5----2-2-2-2-2-2--------------|
|---5--5-5-5-5----0------0----5--5-5-5-5----2-2-2-2-2-2--------------|
|---6--6-6-6-6----1----1-1----6--6-6-6-6----3-3-3-3-3-3--------------|
|---6--6-6-4-6----2--2-2-2----7--7-7-7-7----4-4-4-4-4-4--------------|
|---4--4-4-4-4----2--2-2-2----7--7-7-7-7----4-4-4-4-4-4--------------|
|---4--4-4-4-4----0--0-0-0----5--5-5-5-5----2-2-2-2-2-2--------------|
    /  / \ / \    /  / / \    /  / / / \    / / / \ / \


Guitar 2

|------------------------------------------------------------------|
|------------------------------------------------------------------|
|---8(9)''''''''-8(9)''''''''8(9)''''''''''8(9)'''''''-------------|
|------------------------------------------------------------------|
|------------------------------------------------------------------|
|------------------------------------------------------------------|

|------------------------------------------------------------------|
|---7(9)'''''''''8(9)'''''''8(9)''''''''''8(9)''''''''-------------|
|------------------------------------------------------------------|
|------------------------------------------------------------------|
|------------------------------------------------------------------|
|------------------------------------------------------------------|


  My open arms,  My lucky charms
  My number eight, My revelate

          I fucked It all,    I rest my case
|-----------------------------------------------------------------|
|-----------4-5-----------------4-5---4-5-4-5---9-----------------|
|-----------------------------------------------------------------|
|------6----------------------------------------------------------|
|---4----------------------4--------------------------------------|
|-----------------------5-----------------------------------------|
       Cos it's all to great   My revelate
|-----------------------------------------------------------------|
|-----------4-5---------------------------------------------------|
|------------------------------6--6--6--6--6-6----3-3-3-----------|
|------6-----------------------7--7--7--7--7-7----4-4-4-----------|
|---4----------------------4---7--7--7--7--7-7----4-4-4-----------|
|-----------------------5------5--5--5--5--5-5----2-2-2-----------|


Chorus (01:18)
                  Sometimes I need to revelation
|----0---0--0---4---5---5-5---7--7--------------------------------|
|----0---0--0---4---5---5-5---7--7--------------------------------|
|----1---1--3---5---6---6-6---8--8--------------------------------|
|-2--2---2--4---6---7---7-7---9--9--------------------------------|
|-2--2---2--4---6---7---7-7---9--9--------------------------------|
|-0--0---0--2---4---5---5-5---7--7--------------------------------|
  / /    /  /   /   /   / \   /  /


                  Sometimes it's all to hard to take
|----0---0--0---4---5---5-5---7--7--------------------------------|
|----0---0--0---4---5---5-5---7--7--------------------------------|
|----1---1--3---5---6---6-6---8--8--------------------------------|
|-2--2---2--4---6---7---7-7---9--9--------------------------------|
|-2--2---2--4---6---7---7-7---9--9--------------------------------|
|-0--0---0--2---4---5---5-5---7--7--------------------------------|
  / /    /  /   /   /   / \   /  /

           Sometimes I need a revelation
|----0---0--0---4---5---5-5---7--7--------------------------------|
|----0---0--0---4---5---5-5---7--7--------------------------------|
|----1---1--3---5---6---6-6---8--8--------------------------------|
|-2--2---2--4---6---7---7-7---9--9--------------------------------|
|-2--2---2--4---6---7---7-7---9--9--------------------------------|
|-0--0---0--2---4---5---5-5---7--7--------------------------------|
  / /    /  /   /   /   / \   /  /

                This time I'm making my own now
|----0---0--0---4---5---5-5---7--7--------------------------------|
|----0---0--0---4---5---5-5---7--7--------------------------------|
|----1---1--3---5---6---6-6---8--8--------------------------------|
|-2--2---2--4---6---7---7-7---9--9--------------------------------|
|-2--2---2--4---6---7---7-7---9--9--------------------------------|
|-0--0---0--2---4---5---5-5---7--7--------------------------------|
  / /    /  /   /   /   / \   /  /
[ Tab from: http://www.guitaretab.com/f/frames/55823.html ]
Guitar 1
       C#m           E           A             F#m
|---4--4-4-4-4----0------0----5--5-5-5-5----2-2-2-2-2-2--------------|
|---5--5-5-5-5----0------0----5--5-5-5-5----2-2-2-2-2-2--------------|
|---6--6-6-6-6----1----1-1----6--6-6-6-6----3-3-3-3-3-3--------------|
|---6--6-6-4-6----2--2-2-2----7--7-7-7-7----4-4-4-4-4-4--------------|
|---4--4-4-4-4----2--2-2-2----7--7-7-7-7----4-4-4-4-4-4--------------|
|---4--4-4-4-4----0--0-0-0----5--5-5-5-5----2-2-2-2-2-2--------------|
    /  / \ / \    /  / / \    /  / / / \    / / / \ / \


Guitar 2

|--------------------------------------------------------------------|
|--------------------------------------------------------------------|
|---8(9)''''''''-8(9)''''''''8(9)''''''''''8(9)'''''''---------------|
|--------------------------------------------------------------------|
|--------------------------------------------------------------------|
|--------------------------------------------------------------------|

  (01:48)
Does this mean where through, Does means it's gone
I've spent are day just upon the word,



  (02:00) That I would write to you this day
|-----------------------------------------------------------------|
|-----------4-5-----------------4-5----9--4-5-4-5-4---------------|
|-----------------------------------------------------------------|
|------6----------------------------------------------------------|
|---4----------------------4--------------------------------------|
|-----------------------5-----------------------------------------|

           but it's all to grave   My   Revelate
|-----------------------------------------------------------------|
|-----------4-5---------------------------------------------------|
|------------------------------6--6--6--6--6-6--------------------|
|------6-----------------------7--7--7--7--7-7--------------------|
|---4----------------------4---7--7--7--7--7-7--------------------|
|-----------------------5------5--5--5--5--5-5--------------------|

                  Sometimes I need to revelation
|----0---0--0---4---5---5-5---7--7--------------------------------|
|----0---0--0---4---5---5-5---7--7--------------------------------|
|----1---1--3---5---6---6-6---8--8--------------------------------|
|-2--2---2--4---6---7---7-7---9--9--------------------------------|
|-2--2---2--4---6---7---7-7---9--9--------------------------------|
|-0--0---0--2---4---5---5-5---7--7--------------------------------|
  / /    /  /   /   /   / \   /  /

                  Sometimes it's all to hard to take
|----0---0--0---4---5---5-5---7--7--------------------------------|
|----0---0--0---4---5---5-5---7--7--------------------------------|
|----1---1--3---5---6---6-6---8--8--------------------------------|
|-2--2---2--4---6---7---7-7---9--9--------------------------------|
|-2--2---2--4---6---7---7-7---9--9--------------------------------|
|-0--0---0--2---4---5---5-5---7--7--------------------------------|
  / /    /  /   /   /   / \   /  /

           Sometimes I need to revelation
|----0---0--0---4---5---5-5---7--7--------------------------------|
|----0---0--0---4---5---5-5---7--7--------------------------------|
|----1---1--3---5---6---6-6---8--8--------------------------------|
|-2--2---2--4---6---7---7-7---9--9--------------------------------|
|-2--2---2--4---6---7---7-7---9--9--------------------------------|
|-0--0---0--2---4---5---5-5---7--7--------------------------------|
  / /    /  /   /   /   / \   /  /

               But this time it's up in arms
|----0---0--0---4---5---5-5---7--7-------------4-4--4-4----~~9---|
|----0---0--0---4---5---5-5---7--7-------------5-5--5-5----~~9---|
|----1---1--3---5---6---6-6---8--8--------6----6-6--6-6----------|
|-2--2---2--4---6---7---7-7---9--9--------6----------------------|
|-2--2---2--4---6---7---7-7---9--9--------4----------------------|
|-0--0---0--2---4---5---5-5---7--7-------------------------------|
  / /    /  /   /   /   / \   /  /

Violin solo arr for guitar played over chorus
(02:42)  guitar 2
|----16h17p1616h17p1616h17h19-22(24)-1716h17p1616h17p16-|
|------------17-------17--------------------------17------17-|
|------------------------------------------------------------|
|------------------------------------------------------------|
|------------------------------------------------------------|
|------------------------------------------------------------|

|---------------16h17h1916h17h1616h17h1616h17h1922(24)---|
|-------16h17h19-----------------17-------17-----------------|
|--16h18-----------------------------------------------------|
|------------------------------------------------------------|
|------------------------------------------------------------|
|------------------------------------------------------------|

 Played under solo Guitar 1
|----------4--------0---0--2---4---5------------------------------|
|----------5--------0---0--2---4---5------------------------------|
|---6---6--6--------1---1--3---5---6------------------------------|
|---6---6--6-----2--2---2--4---6---7------------------------------|
|---4---4--4-----2--2---2--4---6---7------------------------------|
|----------------0--0---0--2---4---5------------------------------|


|----0---0--0---4---5---5-5---7--7--------------------------------|
|----0---0--0---4---5---5-5---7--7--------------------------------|
|----1---1--3---5---6---6-6---8--8--------------------------------|
|-2--2---2--4---6---7---7-7---9--9--------------------------------|
|-2--2---2--4---6---7---7-7---9--9--------------------------------|
|-0--0---0--2---4---5---5-5---7--7--------------------------------|
  / /    /  /   /   /   / \   /  /

 Guitar2
    This time I need a revelation
|----16h17p1616h17p1616h17h19--1716h17p1616h17p1622(24)-|
|------------17-------17--------------------17-------17------|
|------------------------------------------------------------|
|------------------------------------------------------------|
|------------------------------------------------------------|
|------------------------------------------------------------|
  Guitar1
|----0---0--0---4---5---5-5---7--7--------------------------------|
|----0---0--0---4---5---5-5---7--7--------------------------------|
|----1---1--3---5---6---6-6---8--8--------------------------------|
|-2--2---2--4---6---7---7-7---9--9--------------------------------|
|-2--2---2--4---6---7---7-7---9--9--------------------------------|
|-0--0---0--2---4---5---5-5---7--7--------------------------------|
  / /    /  /   /   /   / \   /  /

|----0---0--0---4---5---5-5---7--7--------------------------------|
|----0---0--0---4---5---5-5---7--7--------------------------------|
|----1---1--3---5---6---6-6---8--8--------------------------------|
|-2--2---2--4---6---7---7-7---9--9--------------------------------|
|-2--2---2--4---6---7---7-7---9--9--------------------------------|
|-0--0---0--2---4---5---5-5---7--7--------------------------------|
  / /    /  /   /   /   / \   /  /
                                          (03:12)
|----0---0--0---4---5---5-5---7--7--------2---4-----5-----7--7--------|
|----0---0--0---4---5---5-5---7--7--------2---4-----5-----7--7--------|
|----1---1--3---5---6---6-6---8--8--------3---5-----6-----8--8--------|
|-2--2---2--4---6---7---7-7---9--9--------4---6-----7-----9--9--------|
|-2--2---2--4---6---7---7-7---9--9--------4---6-----7-----9--9--------|
|-0--0---0--2---4---5---5-5---7--7--------2---4-----5-----7--7--------|
  / /    /  /   /   /   / \   /  /
                                  Strum each cord repeatedly
|--2----2--4----5------7--7--------9----8----7----6-----2----4--------|
|--2----2--4----5------7--7--------9----8----7----6-----2----4--------|
|--3----3--5----6------8--8--------10---9----8----7-----3----5--------|
|--4----4--6----7------9--9--------11---10---9----8-----4----6--------|
|--4----4--6----7------9--9--------11---10---9----8-----4----6--------|
|--2----2--4----5------7--7--------9----8----7----6-----2----4--------|


   (03:33)
|---16-----16----16h17p16--16----16---16h17p1414(16)--14-12-11-------|
|------19-----19--------------19---19----------------------------14---|
|---------------------------------------------------------------------|
|---------------------------------------------------------------------|
|---------------------------------------------------------------------|
|---------------------------------------------------------------------|
Related for Revelate tab
Revelate chords by Frames