Song name
# A B C D E F G H I J K L M N O P Q R S T U V W X Y Z

Framing Hanley - Alone In This Bed tab

E----------------------------------------------|
B----------------------------------------------|
G--4-------------------------3-----------------|
D--4-------------------------1-----------------|
A--2-------------------------1-----------------|
D----------------------------1-----------------|
V1 Waking up without you, it doesn't feel right,
V2 And sometimes. .........i think i can feel you

E------------------------------------------------------|
B------------------------------------------------------|
G---------------------------------6--------------------|
D--6------------------------------4--------------------|
A--4------------------------------4--------------------|
D--3------------------------------4--------------------|
to sleep with only memories, it's harder every night.
   breathing     on      my       neck..........

E--------------------------------------|
B--------------------------------------|
G--4----------6-------------------3----|
D--4----------4--------6----------1----|
A--2----------4--------4----------1----|
D-------------4--------3----------1----|
 tonight i'm reaching out to the stars
 .....it doesn't matter where you are

E---------------------------------------------------------|
B---------------------------------------------------------|
G-------------------4-------------------------------------|
D-------------------4-------------------------------------|
A-------------------2-------------------------------------|
D---------------------------------------------------------|
I think he owes me a favor
Ill hold you again....

E-------------------------------------------------------|
B-------------------------------------------------------|
G--6-------------------------------------3--------------|
D--4------------6------------------------1--------------|
A--4------------4------------------------1--------------|
D--4------------3------------------------1--------------|
 .............I wish I could hear your voice
 Bed......... I wish I could touch you once more

E--------------------------------------------------------|
B--------------------------------------------------------|
G-----4--------------------------------------------------|
D-----2--------------------------------------------------|
A-----2--------------------------------------------------|
D--------------------------------------------------------|
 dont leave me alone in this
Tap to rate this tab
# A B C D E F G H I J K L M N O P Q R S T U V W X Y Z