Guitaretab - guitar tabs
Song name
# A B C D E F G H I J K L M N O P Q R S T U V W X Y Z

Framing Hanley - Slow Dance tab

Slow Dance
by Framing Hanley

INTRO
E|-----------------|8X 
B|o--------4-4-4--o|
G|---------4-4-4---|
D|---2-2-2---------|
A|o--2-2-2--------o|
D|---22-2---------|

E|-----------------|4X
B|o--------4-4-4--o|
G|---------4-4-4---|
D|---4-4-4---------|
A|o--4-4-4--------o|
D|---44-4---------|

E|-----------------|4X
B|o--------4-4-4--o|
G|---------4-4-4---|
D|---2-2-2---------|
A|o--2-2-2--------o|
D|---22-2---------|

E|-----------------|4X
B|o--------4-4-4--o|
G|---------4-4-4---|
D|---4-4-4---------|
A|o--4-4-4--------o|
D|---44-4---------|

PRECHORUS
E|------------|2X  |-------|
B|o----------o|    |-------|
G|---4~--9~---|    |--11~--|
D|---x---x----|    |--x----|
A|o-2~--7~--o|    |--9~---|
D|------------|    |-------|

CHORUS
E|------------|2X  (During the chorus, => |-----------------|(repeat a this
B|o----------o|     this is playing    => |o---------------o| lot of times
G|---4~--8~---|     in the background) => |--8-6-4h6-4h6----| during chorus)
D|---x---x----|                           |-----------------|
A|o-2~--6~--o|                           |o---------------o|
D|------------|                           |-----------------|

INTRO
E|-----------------|8X 
B|o--------4-4-4--o|
G|---------4-4-4---|
D|---2-2-2---------|
A|o--2-2-2--------o|
D|---22-2---------|

E|-----------------|4X
B|o--------4-4-4--o|
G|---------4-4-4---|
D|---4-4-4---------|
A|o--4-4-4--------o|
D|---44-4---------|
[ Tab from: http://www.guitaretab.com/f/framing-hanley/182830.html ]
E|-----------------|4X
B|o--------4-4-4--o|
G|---------4-4-4---|
D|---2-2-2---------|
A|o--2-2-2--------o|
D|---22-2---------|

E|-----------------|4X
B|o--------4-4-4--o|
G|---------4-4-4---|
D|---4-4-4---------|
A|o--4-4-4--------o|
D|---44-4---------|

PRECHORUS
E|------------|2X  |-------|
B|o----------o|    |-------|
G|---4~--9~---|    |--11~--|
D|---x---x----|    |--x----|
A|o-2~--7~--o|    |--9~---|
D|------------|    |-------|

CHORUS
E|------------|2X  (During the chorus, => |-----------------|(repeat a this
B|o----------o|     this is playing    => |o---------------o| lot of times
G|---4~--8~---|     in the background) => |--8-6-4h6-4h6----| during chorus)
D|---x---x----|                           |-----------------|
A|o-2~--6~--o|                           |o---------------o|
D|------------|                           |-----------------|

INTERLUDE
E|-----------------------|----------------|
B|-----------------------|--(loud-part)---|
G|--8~--11~--8~--6~--8~--|--8~--6~--4-4~--|
D|--x---x----x---x---x---|--x---x---x-x---|
A|--6~--9~---6~--4~--6~--|--6~--4~--2-2~--|
D|-----------------------|----------------|

CHORUS
E|------------|5X  (During the chorus, => |-----------------|(repeat a this
B|o----------o|     this is playing    => |o---------------o| lot of times
G|---4~--8~---|     in the background) => |--8-6-4h6-4h6----| during chorus)
D|---x---x----|                           |-----------------|
A|o-2~--6~--o|                           |o---------------o|
D|------------|                           |-----------------|

END
E|------|
B|------|
G|--8~--|
D|--x---|
A|--6~--|
D|------|
Related for Slow Dance tab