Song name
# A B C D E F G H I J K L M N O P Q R S T U V W X Y Z

Framing Hanley - Hear Me Now tab

-----------------------------------------------------------
			     Hear Me Now - Framing Hanley
-----------------------------------------------------------
Tabbed by: Theonelink
Email: Jimmy1927537534@btinternet.com

I have to make some corrections but this is what I have so far.

This is a combination of rhythm and lead.

Tuning: Drop C# (C# G# C# F# A# D#)


Intro:
D|------------------------------|
A|------------------------------|
F|------7-----------------------|
C|------0-----------------------|
G|------0----Let Ring-----------|
C|------0-----------------------|

(0:21 - 0:36)
D|----------------------------------------------------------|------------------------------------|
A|-----10-----10-----10-----10------------------------------|--13---------13-----13--------------|
F|---------------------------------12-----12-----12-----12--|------12---------12-----12----------|
C|--0------0------0------0------0------0------0------0------|----------------------------14(x16)-|
G|----------------------------------------------------------|------------------------------------|
C|----------------------------------------------------------|------------------------------------|

Prechrous:
D|------------------------------------------------------------------|
A|------------------------------------------------------------------|
F|-------------------------------------------------------xxxx-------|
C|----0--------0--------0----------------88888888888888--xxxx-------|
G|----0--------0--------0----------------88888888888888--xxxx-------|
C|----0--------0--------0----------------88888888888888--xxxx-------|

Chorus:
D|-------------------------------------------------------------------------------|
A|-------------------------------------------------------------------------------|
F|---------------------------------------------5----------------------------5----|
C|--33333333-88888888----------------------------8----------------------------8--|
G|--33333333-88888888--0--5h8-5h8-5--00--5h8-5------0--5h8-5h8-5--00--5h8-5------|
C|--33333333-88888888--0-------------00-------------0-------------00-------------|             
                       x             xx             x             xx

(1:04 - 1:18)
D|----------------------------------------------|-----------------------------------|
A|--10(X8)----------10/-13(X8)------------------|--10(X8)---------------------------|
F|----------12(X8)------------------------------|----------12(X8)--10(X8)--/17(X8)--|
C|------------------------------14(X4)--15(X4)--|-----------------------------------|
G|----------------------------------------------|-----------------------------------|
C|----------------------------------------------|-----------------------------------|

(1:19 - 1:33)
D|----------------------------------------------|------------------|
A|--10(x8)----------10/-13(x8)------------------|-----------6------|
F|----------12(x8)--------------14(x4)--15(x4)--|-------------5----|
C|----------------------------------------------|---8--------------|
G|----------------------------------------------|---8--------------|
C|----------------------------------------------|---8--------------|

Prechrous:
D|----------------------------------------------------------|
A|----------------------------------------------------------|
F|----------------------------------------------------------|
C|----0--------0--------0----------------8888888888888888---|
G|----0--------0--------0----------------8888888888888888---|
C|----0--------0--------0----------------8888888888888888---|

--Repeat Chorus 2X--

(2:17 - 2:23)
D|-------------------------------------|
A|-------------------------------------|
F|---555-5-55-55-55-5-555-5-55-55------|
C|-------------------------------------|
G|---333-3-33-33-33-3-333-3-33-33------|
C|-------------------------------------|

(2:24 - 2:53)
D|--------------------------------|
A|--------------------------------|
F|--12(X8)--10(X8)--6(X8)--8(X8)--| Repeat 4x
C|--------------------------------|
G|--------------------------------|
C|--------------------------------|

Interlude:
(2:54 - 3:08) I'm sure they play octaves here,
              Ive seen them play it live but I'm not sure.

(3:09 - 3:24)
D|-----------------------------------------|
A|-----------------------------------------|
F|-----------------------------------------| 
C|--33333333-88888888-33333333-88888888----|
G|--33333333-88888888-33333333-88888888----|
C|--33333333-88888888-33333333-88888888----|

D|--------------------------------------------|
A|--------------------------------------------|
F|--------------------------------------------| 
C|--0------0------0------0-12-10-8------------|
G|--0------0------0------0-12-10-8--Let Ring--|
C|--0------0------0------0-12-10-8------------|


Tap to rate this tab
 
# A B C D E F G H I J K L M N O P Q R S T U V W X Y Z