Song name
# A B C D E F G H I J K L M N O P Q R S T U V W X Y Z

Framing Hanley - Lollipop tab

this is my version of lollipop by framing hanley 

this is my first tab im pretty sure its right but let me know if it needs inproving.

its tuned to drop d


intro/verse
|--------------------------------------------------------------------------|
|-----------17171717-18181818-20202020----------17171717-18181818----------|
|--19191919----------------------------19191919-------------------17171717-|
|--------------------------------------------------------------------------|
|--------------------------------------------------------------------------|
|--------------------------------------------------------------------------|

chorus                     
|------------------------------------------------------------|
|------------------------------------------------------------|
|------------------------------------------------------------|
|--7-(x16)-10-(x16)-5-(x16)-7----9----12----10----9---9/10---|
|--5-------8--------3-------5-00-7-00-10-00-8--00-7-0-7/8----|
|-----------------------------00---00----00----00---0--------|


verse
|--------------------------------------------------------------------------|
|-----------17171717-18181818-20202020----------17171717-18181818----------|
|--19191919----------------------------19191919-------------------17171717-|
|--------------------------------------------------------------------------|
|--------------------------------------------------------------------------|
|--------------------------------------------------------------------------|


|--17----------------------------20----17------------------|
|-----15-18-17----15-18-17----15----15----15-17------------|
|--------------17----------17------------------------------|
|----------------------------------------------------------|
|----------------------------------------------------------|
|----------------------------------------------------------|

chorus                        
|------------------------------------------------------------|
|------------------------------------------------------------|
|------------------------------------------------------------|
|--7-(x16)-10-(x16)-5-(x16)-7----9----12----10----9---9/10---|
|--5-------8--------3-------5-00-7-00-10-00-8--00-7-0-7/8----|
|-----------------------------00---00----00----00---0--------|
                              
|--------------------------------------------------------------------------|
|-----------17171717-18181818-20202020----------17171717-18181818----------|
|--19191919----------------------------19191919-------------------17171717-|
|--------------------------------------------------------------------------|
|--------------------------------------------------------------------------|
|--------------------------------------------------------------------------|

under the picking bit
|----------------------------------------------------------|
|----------------------------------------------------------|
|----------------------------------------------------------|
|----------------------------------------------------------|
|--0-000-00000---------------------------------------------|
|--0-000-00000---------------------------------------------|

|------------------------------------------------|
|------------------------------------------------|
|--7-----10----12-----14-------------------------|
|--x-----x-----x------x--------------------------|
|--5-----8-----10-----12-------------------------|
|------------------------------------------------|

chorus
|------------------------------------------------------------|
|------------------------------------------------------------|
|------------------------------------------------------------|
|--7-(x16)-10-(x16)-5-(x16)-7----9----12----10----9---9/10---|
|--5-------8--------3-------5-00-7-00-10-00-8--00-7-0-7/8----|
|-----------------------------00---00----00----00---0--------|

end with
|----------------------------------------------------------|
|----------------------------------------------------------|
|----------------------------------------------------------|
|----------------------------------------------------------|
|--0-000-00000---------------------------------------------|
|--0-000-00000---------------------------------------------|


cheers for checking out my tab hope u enjoy playing the song


Tap to rate this tab
# A B C D E F G H I J K L M N O P Q R S T U V W X Y Z