Song name
# A B C D E F G H I J K L M N O P Q R S T U V W X Y Z

Framing Hanley - You Stupid Girl tab

-------------------------------------------------------------------------------
			     You Stupid Girl - Framing Hanley
-------------------------------------------------------------------------------
Tabbed by: Theonelink
Email: Jimmy1927537534@btinternet.com

Video of me playing the song - http://www.youtube.com/watch?v=Otz6YCSzYbM     




--TAB--

Tuning: Drop B

Clean Part:
|----------------|-----|----------|---------|-----------|-----|-------|
|-----3-5-3------|-3-5-|-----3--5-|-----5---|---3-----5-|---3-|---3-5-|
|----------------|-----|----------|-------4-|-----------|-----|-------|
|-4-5--------5---|-----|-4-5------|---5-----|-4---------|-4---|-4-----|
|----------------|-----|----------|-3-------|-----------|-----|-------|
|--------------2-|-----|----------|---------|-----------|-----|-------|

|---------3-|-----|
|---3-5-----|-----|
|-5---------|---4-|
|-----------|-4---|
|-----------|-----|
|-----------|-----|

Pre-Chorus (Distortion)
|--------------------------------------------------------------------------------|
|--------------------------------------------------------------------------------|
|--------------------------------------------------------------------------------|
|-xxxx-12-------10--------------------12---------------------10--------------15\-|
|-xxxx-12-(x16)-10-(x12)-10-10-10-10--12-(x16)---10-10-10-10-10--10-10-10-10-15\-|
|-xxxx-12-------10-------10-10-10-10--12---------10-10-10-10-10--10-10-10-10-15\-|
                         x  x  x  x              x  x  x  x      x  x  x  x

Chorus:
|-----------------------------------------------------------------|
|-----------------------------------------------------------------|
|-----------------------------------------------------------------|
|-2-2-2-2--5--10-10-10-10--5--0-0-0-0-0--5-5-5-5-5-5--4-4-4-4-4-4-| (Twice)
|-2-2-2-2--5--10-10-10-10--5--0-0-0-0-0--5-5-5-5-5-5--4-4-4-4-4-4-|
|-2-2-2-2--5--10-10-10-10--5--0-0-0-0-0--5-5-5-5-5-5--4-4-4-4-4-4-|

Then:
|--------------------------|
|--------------------------|
|--------------------------|
|-2-2-xxx-10---2-2-xxx-12--|
|-2-2-xxx-10---2-2-xxx-12--|
|-2-2-xxx-10---2-2-xxx-12--|

Verse two:
|-----------|--------|--------|----------3-|
|---3-----5-|----3-5-|----3-5-|---3-5------|
|-----------|--------|--------|-5----------|
|-4---------|-4------|-4------|------------|
|-----------|--------|--------|------------|
|-----------|--------|--------|------------|

-Repeat chorus twice

Then:
|---------------------------------------------------|
|---------------------------------------------------|
|---------------------------------------------------|
|-2-2-xxx-10---2-2-xxx-10---2-2-xxx-10---2-2-xxx-12-|
|-2-2-xxx-10---2-2-xxx-10---2-2-xxx-10---2-2-xxx-12-|
|-2-2-xxx-10---2-2-xxx-10---2-2-xxx-10---2-2-xxx-12-|

Bridge Part 1:
|------19-----19--19------17-----17--17--|
|-16-16--16-16--16---16-16--16-16--16----|
|----------------------------------------| (Twice)
|----------------------------------------| 
|----------------------------------------|
|----------------------------------------|

Bridge part 2:
|---------------------------------|
|---------------------------------|
|-------12\11--7---------12\11--7-| 
|-2-2----x\x---x---2-2----x\x---x-| 
|-2-2---10\9---5---2-2---10\9---5-|
|-2-2--------------2-2------------|

-Repeat Bridge Part 1 twice

-Repeat Bridge Part 2

-Repeat Bridge part 1 twice

Then:
|------------------------|
|-15--12--15------12-----|
|-------------14---------| 
|------------------------| 
|-(Figure-Out-Strumming)-|
|------------------------|

-Repeat Chorus Twice

Then:
|--------------------------------------------------------------|
|--------------------------------------------------------------|
|--------------------------------------------------------------| 
|-2-2-xxx-10---2-2-xxx-10---2-2-xxx-10---2-2-xxx-12------------| 
|-2-2-xxx-10---2-2-xxx-10---2-2-xxx-10---2-2-xxx-12-(Let-Ring)-|
|-2-2-xxx-10---2-2-xxx-10---2-2-xxx-10---2-2-xxx-12------------|


************************************

| /   slide up
| \   slide down
| h   hammer-on
| p   pull-off
| ~   vibrato
| +   harmonic
| x   Mute note
| b   Bend
| pb  Pre-bend
| br  Bend release
| pbr Pre-bend release
| brb Bend release bend

************************************
Tap to rate this tab
# A B C D E F G H I J K L M N O P Q R S T U V W X Y Z