Song name
# A B C D E F G H I J K L M N O P Q R S T U V W X Y Z

Framing Hanley - Criminal tab

-------------------------------------------------------------------------------
                             Criminal - Framing Hanley
-------------------------------------------------------------------------------
Tabbed by:Connor Smith
E-mail:connorbetts-1995@hotmail.co.uk

Any improvements leave a comment below!

Tuning:Drop C#

Intro

e|---------------------------------------------------------------------------|
B|---------------------------------------------------------------------------|
G|---------------------------------------------------------------------------|
D|12x16-----11x16-----10x16-----9x16-----------------------------------------|
A|---------------------------------------------------------------------------|
E|-------------------------------------------9-10-11---12--------------------|

Verse Rhythm

e|---------------------------------------------------------------------------|
B|---------------------------------------------------------------------------|
G|---------------------------------------------------------------------------|
D|12x16-----11x16-----10x16-----9x16-----------------------------------------|
A|---------------------------------------------------------------------------|
E|---------------------------------------------------------------------------|

Lead

e|---------------------------------------------------------------------------|
B|------10----------10---------10--------10-----------11-----8---------------|
G|----10----------10--------10--------10--------------10-----9---------------|
D|--12----------11-------10---------9----------------------------------------|
A|---------------------------------------------------------------------------|
E|---------------------------------------------------------------------------|

Rhythm

e|---------------------------------------------------------------------------|
B|---------------------------------------------------------------------------|
G|---------------------------------------------------------------------------|
D|12x16-----11x16-----10x16-----9x16-----8x16-------5------------------------|
A|---------------------------------------------------------------------------|
E|---------------------------------------------------------------------------|

Chorus Rhythm 

e|---------------------------------------------------------------------------|
B|---------------------------------------------------------------------------|
G|--------------5-5----------------------------------------------------------|
D|-0-0-----3-3--5-5----9-9-----8-8---10-10-----------------------------------|
A|-0-0-----3-3--3-3----1010----8-8---10-10-----------------------------------|
E|-0-0-----3-3---------9-9-----8-8---10-10-----------------------------------|

e|----------------------------------------------------------------------------|
B|----------------------------------------------------------------------------|
G|---------------------5-5-55-------------------------------------------------|
D|-0-0-00----3-3-33----5-5-55----8----10--------------------------------------|
A|-0-0-00----3-3-33----3-3-33----8----10--------------------------------------|
E|-0-0-00----3-3-33--------------8----10--------------------------------------|x2

Bridge Rhythm

e|----------------------------------------------------------------------|
B|----------------------------------------------------------------------|
G|-----------------5---5------------------------------------------------|
D|-0---0---3---3---5---5---8----10--------------------------------------|
A|-0---0---3---3---3---3---8----10--------------------------------------|
E|-0---0---3---3-----------8----10--------------------------------------|x2

2nd verse Rhythm

e|---------------------------------------------------------------------------|
B|---------------------------------------------------------------------------|
G|---------------------------------------------------------------------------|
D|12x16-----11x16-----10x16-----9x16-----8x16-------5------------------------|
A|---------------------------------------------------------------------------|
E|---------------------------------------------------------------------------|
                                         ^ second time round

Lead

e|---------------------------------------------------------------------------|
B|---------------------------------------------------------------------------|
G|--7------10/6----9/5-----7/4-----------------------------------------------|
D|---------------------------------------------------------------------------|
A|---------------------------------------------------------------------------|
E|---------------------------------------------------------------------------|

Chorus Rhythm

e|---------------------------------------------------------------------------|
B|---------------------------------------------------------------------------|
G|--------------5-5----------------------------------------------------------|
D|-0-0-----3-3--5-5----9-9-----8-8---10-10-----------------------------------|
A|-0-0-----3-3--3-3----1010----8-8---10-10-----------------------------------|
E|-0-0-----3-3---------9-9-----8-8---10-10-----------------------------------|

e|----------------------------------------------------------------------------|
B|----------------------------------------------------------------------------|
G|---------------------5-5-55-------------------------------------------------|
D|-0-0-00----3-3-33----5-5-55----8----10--------------------------------------|
A|-0-0-00----3-3-33----3-3-33----8----10--------------------------------------|
E|-0-0-00----3-3-33--------------8----10--------------------------------------|x2

Bridge Rhythm

e|----------------------------------------------------------------------|
B|----------------------------------------------------------------------|
G|-----------------5---5------------------------------------------------|
D|-0---0---3---3---5---5---8----10--------------------------------------|
A|-0---0---3---3---3---3---8----10--------------------------------------|
E|-0---0---3---3-----------8----10--------------------------------------|x2

Solo 

e|---------------15b17-------------------15b17-------------------------------|
B|-----13--15--------- 15------13--15----------------------------------------|
G|-1414--14--1414----------1414--14--1414------------------------------------|
D|---------------------------------------------------------------------------|
A|---------------------------------------------------------------------------|
E|---------------------------------------------------------------------------|

e|---------------------------------------------------11--13--17--------------|
B|-17h18p17-15h17p15-13-15--13b15r13-------12-13h15--14b-16b-20b-------------|
G|-----------------------------------12-10-----------------------------------|
D|---------------------------------------------------------------------------|
A|---------------------------------------------------------------------------|
E|---------------------------------------------------------------------------|

Rhythm under solo

e|---------------------------------------------------------------------------|
B|---------------------------------------------------------------------------|
G|---------------------------------------------------------------------------|
D|---8--------------7--------------8---------------7-------------------------|
A|---8--------------7--------------8---------------7-------------------------|
E|---8--------------7--------------8---------------7-------------------------|

Play this till the end. Rhythm                              

e|-----------------------------------------------------------------------|
B|-----------------------------------------------------------------------|
G|-----------------5---5-------------------------------------------------|
D|-0---0---3---3---5---5---8----10--------------------------0------------|
A|-0---0---3---3---3---3---8----10--------------------------0------------|
E|-0---0---3---3-----------8----10--------------------------0------------|
                                                           ^ very last chord
************************************

| /   slide up
| \   slide down
| h   hammer-on
| p   pull-off
| ~   vibrato
| +   harmonic
| x   Mute note
| b   Bend
| pb  Pre-bend
| br  Bend release
| pbr Pre-bend release
| brb Bend release bend

************************************
Tap to rate this tab
# A B C D E F G H I J K L M N O P Q R S T U V W X Y Z