Song name
# A B C D E F G H I J K L M N O P Q R S T U V W X Y Z

France Damour - Vivante tab

    VIVANTE tab by france d'amour

    traduit en tablature par Steve Morin

|       |       |       |        |       |       |       |        
|--------------------------------|--------------------------------|
|--------------------------------|--------------------------------|
|--------------------------------|1---2---3---4-0h1---------------|
|--------------------------------|2---2---2---2-------2---0---2---|
|--------------------------------|--------------------------------|
|------------------------------0-|--------------------0---0---0---|
 
 |       |       |       |        |       |       |       |        
|--------------------------------|--------------------------------|
|--------------------------------|--------------------------------|
|--------------------------------|1---2---3---4-0h1---------------|
|--0-----0---2---5b6-----0---2---|2---2---2---2-------2---0---2---|
|--------------------------------|--------------------------------|
|----0---0---0---0---0-------0---|--------------------0---0---0---|
 
 |       |       |       |        |       |       |       |        
|--------------------------------|--------------------------------|
|--------------------------------|--------------------------------|
|--------0---1-------------------|1---2---3---4-0h1---------------|
|--0-------------2---0h2---------|2---2---2---2-------2---0---2---|
|--------------------------------|--------------------------------|
|----0---0---0---0-------0-------|--------------------0---0---0---|
 
 |       |       |       |        |       |       |       |        
|--------------------------------|--------------------------------|
|--------------------------------|--------------------------------|
|--------------------------------|1---2---3---4-0h1---------------|
|--0-----0---2---5-6-----0---2---|2---2---2---2-------2---0---2---|
|--------------------------------|--------------------------------|
|----0---0---0---0---0-------0---|--------------------0---0---0---|
 
 |       |       |       |        |       |       |       |        
|--------------------------------|--------------------------------|
|--------------------------------|--------------------------------|
|--------0---1-------------------|1---2---3---4-0h1---------------|
|--0-------------2---0h2---------|2---2---2---2-------2---0---2---|
|--------------------------------|--------------------------------|
|----0---0---0---0-------0-------|--------------------0---0---0---|
 
 |       |       |       |        |       |       |       |        
|--------------------------------|--------------------------------|
|--------------------------------|--------------------------------|
|--------------------------------|1---2---3---4-0h1---------------|
|--0-----0---2---5-6-----0---2---|2---2---2---2-------2---0---2---|
|--------------------------------|--------------------------------|
|----0---0---0---0---0-------0---|--------------------0---0---0---|
 
 |       |       |       |        |       |       |       |        
|--------------------------------|--------------------------------|
|--------------------------------|--------------------------------|
|--------0---1-------------------|1---2---3---4-0h1---------------|
|--0-------------2---0h2---------|2---2---2---2-------2---0---2---|
|--------------------------------|--------------------------------|
|----0---0---0---0-------0-------|--------------------0---0---0---|
 
 |       |       |       |        |       |       |       |        
|--------------------------------|--------------------------------|
|--------------------------------|--------------------------------|
|--------------------------------|1---2---3---4-0h1---------------|
|--0-----0---2---5-6-----0---2---|2---2---2---2-------2---0---2---|
|--------------------------------|--------------------------------|
|----0---0---0---0---0-------0---|--------------------0---0---0---|
 
 |       |       |       |        |       |       |       |        
|--------------------------------|0---0---0---0-------------------|
|--------------------------------|--------------------------------|
|--------0---1-------------------|7---6---5---4-------0-----------|
|--0-------------2---0h2---------|------------------------0h2-----|
|--------------------------------|--------------------------------|
|----0---0---0---0-------0-------|----------------------------0---|
 
 |       |       |       |        |       |       |       |        
|0---0---0---0-------------------|--------------------------------|
|--------------------------------|--------------------------------|
|7---6---5---4-------0-----------|1---2---3---4-0h1---------------|
|------------------------0h2-----|2---2---2---2-------2---0---2---|
|--------------------------------|--------------------------------|
|----------------------------0---|--------------------0---0---0---|
 
 |       |       |       |        |       |       |       |        
|--------------------------------|7-------------------------------|
|--------------------------------|8-------------------------------|
|--------------------------------|7-------7-----9-----9---7-------|
|5-6-----6---6---2-----0h2-------|9---9-------9-----9-------9-----|
|--------------------------------|10------------------------------|
|0---0-------0-------0-------0---|--------------------------------|
 
 |       |       |       |        |       |       |       |        
|9-------------------------------|0---0---0---0-------0-----0-----|
|10------------------------------|--------------------0-----0-----|
|9---------------9-----9---------|7---6---5---4-------1-----1-----|
|11------11----------11----11----|--------------------2-----2-----|
|9---12------12--------------12--|--------------------2-----2-----|
|--------------------------------|--------------------0-----0-----|
 
 |       |       |       |        |       |       |       |        
|--------------------------------|--------------------------------|
|--------------------------------|--------------------------------|
|1---2---3---4-0h1---------------|--------------------------------|
|2---2---2---2-------2---0---2---|5-6-----6---6---2-----0h2-------|
|--------------------------------|--------------------------------|
|--------------------0---0---0---|0---0-------0-------0-------0---|
 
 |       |       |       |        |       |       |       |        
|--------------------------------|--------------------------------|
|--------------------------------|--------------------------------|
|1---2---3---4-0h1---------------|--------------------------------|
|2---2---2---2-------2---0---2---|5-6-----6---6---2-----0h2-------|
|--------------------------------|--------------------------------|
|--------------------0---0---0---|0---0-------0-------0-------0---|
 

pompom020366@hotmail.com
Tap to rate this tab
# A B C D E F G H I J K L M N O P Q R S T U V W X Y Z