Song name
# A B C D E F G H I J K L M N O P Q R S T U V W X Y Z

Francesca Battistelli - Motion Of Mercy Acoustic tab

This song is originally done with a capo on 4, but we performed this song at church and 
I didn't have a capo so I improvised this version so it would be in the same key. Hope 
you enjoy!

Tuning: Standard




Verse 1
e|---2-2-2---2-2-2---2-2-2---2-2-2---2-2-2---2-2-2--|
B|--2-2-2-2-2-2-2-2-2-2-2-2-2-2-2-2-2-2-2-2-2-2-2-2-|
G|--------------------------------------------------|
D|-4-------4-------4-------4-------0-------0--------|
A|--------------------------------------------------|
E|--------------------------------------------------|

e|--------------------4-2-2---4-2-2---4-2-2---4-2-2-|
B|---6-6-6---6-6-6---2-2-2-2-2-2-2-2-2-2-2-2-2-2-2-2|
G|--5-5-5-5-5-5-5-5---------------------------------|
D|------------------4-------4-------0-------0-------|
A|--------------------------------------------------|
E|-6-------6----------------------------------------|
                                    `
			|Pre-Chorus  | Chorus
e|------------------|3333-------|66666666--88888888-----------|
B|---8-6-6---8-6-6--|3333-------|66666666--88888888-----------|
G|--5-5-5-5-5-5-5-5-|xxxx-(4x)--|xxxxxx88--99999999-----------|
D|------------------|5555-------|88787888--1010101010101010---|
A|------------------|5555-------|88888888--1010101010101010---|
E|-6-------6--------|3333-------|66666666--88888888-----------|
                        

e|-55555555------------|-----------0000111100000000-|
B|-66666666------------|-----------1111111111111111-|
G|-55555555------------|-----------0000000000000000-|
D|-77777777---|-
                        
                    
Tap to rate this tab
 
# A B C D E F G H I J K L M N O P Q R S T U V W X Y Z