Song name
# A B C D E F G H I J K L M N O P Q R S T U V W X Y Z

Francesco Canova Da Milano - Tu Discois Que Je Mourroye Claudin De Sermisy tab

Tuning - E A D F# B E    Time Signature: 2/4

 |       |        |       |        |       |        |       |        
|----------------|----------------|----------------|----------------|
|----------------|--------0-------|0-----------0---|--------0-------|
|----------------|----------------|----------------|3---------------|
|--------2-------|2-----------2---|0-------2-------|----------------|
|0---------------|----------------|----------------|4-------2-------|
|----------------|----------------|----------------|----------------|

 |       |        |       |        |       |        |       |        
|----------------|----------------|--------0-------|0-------7-------|
|----------------|----------------|----------------|------------5---|
|1---------------|3---1-------1---|3---------------|----------------|
|2-------2-------|0-------2-------|4-------2-------|----------------|
|----------------|----2-----------|5---------------|----------------|
|----------------|----------------|----------------|----------------|

 |       |        |       |        |       |        |       |        
|7-----------7---|5-------7-------|3-------0-------|5---3---0---3---|
|--------5-------|--------0-------|5---------------|3---0-----------|
|8---------------|7---------------|----------------|----------------|
|----------------|----------------|----------------|--------2-------|
|----------------|----------------|----------------|----------------|
|----------------|----------------|----------------|----------------|

 |       |        |       |        |       |        |       |        
|2-------0-------|3-------2-------|3-------2-------|0---------------|
|3-------0-------|5-------0---3---|0-------3-------|0-----------0---|
|5---------------|------------5---|--------5---3---|1---------------|
|--------2-------|----------------|2---------------|----4---2---0---|
|----------------|----------------|----------------|----------------|
|----------------|----------------|----------------|----------------|

 |       |        |       |        |       |        |       |        
|0-------7-------|7-----------7---|5-------7-------|3-------0-------|
|--------0-------|----------------|--------5-------|----------------|
|3---------------|----------------|3---------------|1-----------1---|
|----------------|5---------------|4---------------|2-------2-------|
|4---------------|7-----------7---|--------7---7---|----------------|
|--------7-------|----------------|----------------|----------------|

 |       |        |       |        |       |        |       |        
|5-------3---0---|3-------2-------|0---------------|--------5-------|
|--------5---5---|5-------4-------|----------------|----------------|
|3---------------|----------------|3-------1-------|1-------3-------|
|4-------2-------|----------------|--------2---2---|2-------4-------|
|5---------------|----------------|0---------------|--------5-------|
|----------------|----------------|----------------|----------------|

 |       |        |       |        |       |        |       |        
|3---0---3-------|2-------0-------|0---------------|0---------------|
|5-------0---2---|3---------------|--------4-------|----------------|
|----------------|3-------1-------|1-------5-------|----------------|
|2---------------|0-------2---2---|--------4-------|2---------------|
|----------------|----------------|2-------2-------|----------------|
|----------------|----------------|----------------|----------------|

 |       |        |       |        |       |        |       |        
|0-------7-------|7---7---5---7---|3---------------|----------------|
|5-------5-------|3---0-----------|5-------0-------|0---0-------0---|
|----------------|--------7-------|----------------|--------3-------|
|----------------|----------------|2-------2-------|0-----------0---|
|----------------|----------------|----------------|----2---4-------|
|----------------|----------------|----------------|----------------|

 |       |        |       |        |       |        |       |        
|0-------7-------|7---7---5---7---|----------------|----------------|
|--------5-------|3---0-----------|8-------0-------|0---0-------0---|
|1---------------|--------7-------|5---------------|--------3-------|
|2---------------|----------------|--------2-------|0-----------0---|
|----------------|----------------|7---------------|----2---4-------|
|----------------|----------------|----------------|----------------|

 |       |        |       |        |       |        |       |        
|0-----------0-2-|3---0---3-------|2-------0-------|--------0-------|
|--3-1-0-1-3-----|----------------|--------0-------|4---------------|
|1---------------|1-----------1---|3-------1-------|3-------1-------|
|2---------------|2-----------2---|4---------------|4-------2-------|
|----------------|----------------|----------------|----------------|
|----------------|----------------|----------------|----------------|

 |       |        |       |        |       |        |       |        
|----------------|3-----------3---|5-------7-------|5-------3-------|
|----------------|5-----------5---|7-------8-------|7-------5-------|
|0---------------|----------------|----------------|----------------|
|1-------2-------|----------------|----------------|----------------|
|----------------|----------------|----------------|----------------|
|----------------|----------------|----------------|----------------|

 |       |        |       |        |       |        |       |        
|2-------0-------|3-----------3---|2-------3-------|2-------0-------|
|4-------5-------|----------------|--------3-------|3-------0-------|
|----------------|1-----------1---|3-------5-------|3-------1-------|
|----------------|2-----------2---|0---------------|0-------2-------|
|----------------|----------------|----------------|----------------|
|----------------|----------------|--------3-------|----------------|

 |       |        |       |        |       |        |       |        
|3---2---3---0---|2-------0-------|----------------|--------3-------|
|--------0---2---|4-------5-------|----------------|----------------|
|1---3-----------|----------------|1-------1-------|0-------1---3---|
|----------------|----------------|------------2---|0-------2-------|
|----------------|----------------|----0---2---4---|----------------|
|----------------|----------------|3---------------|----------------|

 |       |        |       |        |       |        |       |        
|----3---2-------|0-------3---5---|7-----------5---|7-------3---2---|
|0-------4-------|--------0-------|--------8-------|----------------|
|1---3---5-------|1---3-----------|--------5---7---|8-------1---3---|
|----------------|--------2---4---|5---7-----------|--------2---4---|
|----------------|----------------|----------------|----------------|
|----------------|----------------|----------------|----------------|

 |       |        |       |        |       |        |       |        
|3-------3-------|--------2-------|3-2-0---0-2-3-0-|2-------0---0---|
|--------0-------|3-------0-------|0-----3---------|3-------0-------|
|1-------1-------|3---------------|1---------------|3-------1---3---|
|2---------------|0-------0-------|2---------------|0-------2---2---|
|----------------|----------------|----------------|------------0---|
|----------------|----------------|----------------|----------------|

 |       |        |       |        |       |        |       |        
|0---------------|0-------3---5---|7-------3---2---|3---0---3---2---|
|0-------4-------|0-------5---7---|5---------------|0-----------4---|
|1-------5-------|1---------------|--------1---3---|------------0---|
|2-------4-------|2---------------|--------2---4---|2-------2-------|
|--------2-------|----------------|----------------|----------------|
|----------------|----------------|----------------|----------------|

 |       |        |       |        |       |        |       |        
|3-------3-------|5-------2-------|3-2-0---0-2-3-0-|2-------0---0---|
|0-------0-------|3-------0-------|0-----3---------|3-------0-------|
|1-------1-------|0---------------|1---------------|3-------1---3---|
|2---------------|0-------0-------|2---------------|0-------2---2---|
|----------------|----------------|----------------|------------0---|
|----------------|----------------|----------------|----------------|

 |       |        |       |        |       |        |       |        
|0---------------|0---------------|0-------0---0---|7---------------|
|0-------4-------|0---------------|5-------5---5---|----------------|
|1-------5-------|----------------|----------------|--------1---1---|
|2-------4-------|2---------------|----------------|5-------2---2---|
|--------2-------|----------------|----------------|7---------------|
|----------------|----------------|----------------|----------------|

 |       |        |       |        |       |        |       |        
|----------------|----------------|----------------|0-------0---0---|
|0-------0-------|----------------|----------------|5-------5---5---|
|1---3---1-------|3-------1-------|0---------------|----------------|
|------------2---|4-------2-------|1-------2-------|----------------|
|----------------|----------------|----------------|----------------|
|----------------|----------------|----------------|----------------|

 |       |        |       |        |       |        |       |        
|7-----------7---|5-------7-------|3-------0-------|3---2---0---3---|
|8-----------8---|7---5---4-------|5---------------|0-------0-------|
|----------------|----------------|----------------|1-------1-------|
|----------------|----------------|2-------2---2---|----------------|
|----------------|----------------|----------------|----------------|
|----------------|----------------|----------------|----------------|

 |       |        |       |        |       |        |       |        
|2-------0-------|----------------|0-------0-------|0-------0-------|
|3-------0-------|2-------4-------|----------------|------------3---|
|3-------1-------|0-------5-------|----------------|--------3-------|
|0-------2-------|----------------|2-----------2---|2---0-----------|
|----------------|0-------2-------|----------------|--------4---2---|
|----------------|----------------|----------------|----------------|

 |       |        |       |        |       |        |       |        
|5-----------5---|5---3---2---0---|--------2-------|----2---2-------|
|2---0-------0---|2---------------|3---------------|3-----------3---|
|--------3-------|0-------3---1---|0---------------|0-----------3---|
|------------5---|----2---0-------|----2---0-------|------------4---|
|0---------------|----------------|----------------|----------------|
|----------------|----------------|----------------|----------------|

 |       |        |       |        |       |        |       |        
|----------------|7-----------7---|5---3---2---0---|--------3---0---|
|3---2---0-------|0-------8-------|7---5---3---2---|3---3---5---2---|
|3---1---0---3---|----------------|----------------|5---5-----------|
|4---2---0---2---|0---------------|----------------|----------------|
|------------4---|----------------|----------------|----------------|
|----------------|7---------------|----------------|----------------|

 |       |        |       |        |       |        |       |        
|2-------0-------|--------3---0---|2-------0-------|--------3---0---|
|3---------------|----3-------2---|3---------------|----3-------2---|
|--------1-------|0---5-----------|--------1---3---|0---5-----------|
|0-------2---2---|0---------------|----0---2---4---|0---------------|
|2-----------4---|--------2-------|----2-----------|--------2-------|
|----------------|----------------|----------------|----------------|

 |       |        |       |        |       |        |       |        
|2-------0-------|--------3---5---|7---------------|7-------3---2---|
|3---------------|0-------0-------|--------8---5---|----------------|
|--------1---3---|1---3---1-------|--------5---7---|8-------1---3---|
|----------------|2---4---2---4---|5---7-----------|--------2---4---|
|----------------|----------------|----------------|----------------|
|----------------|----------------|----------------|----------------|

 |       |        |       |        |       |        |       |        
|3-------3-------|5-------2-------|3-----------3---|2-------0---0---|
|--------0-------|3-------0-------|0-----------0---|3-------0-------|
|1-------1-------|3---------------|1-----------1---|3-------1---3---|
|2---------------|0-------0-------|2-----------2---|0-------2---2---|
|----------------|----------------|----------------|------------0---|
|----------------|----------------|----------------|----------------|

 |       |        |       |        |       |        |       |        
|0---------------|0-------3---5---|7-------3---2---|3---0---3---2---|
|0-------4-------|0-------5---7---|5---------------|0-----------4---|
|1-------5-------|----------------|--------1---3---|1-----------0---|
|2-------4-------|2---------------|--------2---4---|2-------2-------|
|--------2-------|----------------|----------------|----------------|
|----------------|----------------|----------------|----------------|

 |       |        |       |        |       |        |       |        
|3-------3-------|5-------2-------|3-2-0---0-2-3-0-|2-------0---0---|
|--------0-------|3-------0-------|0-----3---------|3-------0-------|
|1-------1-------|3---------------|1---------------|3-------1---3---|
|2---------------|0-------0-------|2---------------|0-------2---2---|
|----------------|----------------|----------------|------------0---|
|----------------|----------------|----------------|----------------|

                  rit.
 |       |        |       |        |       |        |       |        
|0---------------|0---------------|2---------------|0-------0-------|
|0-------4-------|0---------------|3---------------|0---------------|
|1-------5-------|----------------|3---------------|1-------3-------|
|2-------4-------|2---------------|0---------------|2-------2-------|
|--------2-------|----------------|----------------|--------0-------|
|----------------|----------------|----------------|----------------|

 |       |        |       |        |       |        |       |        
|0---------------|----------------|0---------------|---------------||
|0---------------|--------4-------|0---------------|---------------||
|1---------------|5---------------|----------------|---------------||
|2---------------|4---------------|2---------------|---------------||
|----------------|2---------------|----------------|---------------||
|----------------|----------------|----------------|---------------||
Tap to rate this tab
 
# A B C D E F G H I J K L M N O P Q R S T U V W X Y Z