Song name
# A B C D E F G H I J K L M N O P Q R S T U V W X Y Z

Francesco Guccini - Ho Ancora La Forza tab

There is the acoustic guitar solo in the song "Ho ancora la forza" live Premio
Tenco 2000 by Francesco Guccini and Luciano Ligabue.

Legend:

h= hammer on
p= pull off
b= bend
r= release bend
\ and /= slide
(P.M.)= Palm Muting
~= vibrato


e|------------------------------------------------------|
B|--------8b(10)r8--6\5--5h6p5--------------------------|
G|------5-----------------------5/7---------------------|
D|--5h7-----------------------------5h7p5---5-----------|
A|----------------------------------------8---8--5------|
E|------------------------------------------------------|

(P.M.)

e|--------------------------------------------------------------------------|
B|-----------------------------5-------6p5----5-----------------------------|
G|--------------------(5)--(7)------7-------7---7---------------------------|
D|-----------(5)--(7)------------------------------5h7p5--5h7p5---5--5h7p5--|
A|--(5)--(8)----------------------------------------------------8-----------|
E|--------------------------------------------------------------------------|

e|-----------8p6---6p5---5---------------------|
B|------8p5------------6---6--5----------------|
G|--7p5------------------------5------5~~~-----|
D|------------------------------5--5/7~~~~~----|
A|---------------------------------------------|
E|---------------------------------------------|
Tap to rate this tab
 
# A B C D E F G H I J K L M N O P Q R S T U V W X Y Z