Francesqa - Years tab

-- Francesqa  Years --

standard tuning EADGBE

tabbed by x-tasha-x

lisen to the song for the strumming pattern =D

INTRO:
guitar 1
E||-----------------------------|
B||-----------------------------|
G||-----------------------------|
D||-2~--------------------------|
A||-2~--------------------------|
E||-0~--------------------------|

guitar 2
E||-----------------------------|
B||-----------------------------|
G||----------------------4~-----|x2
D||----5~----------5~-----------|
A||-5h7---------5h7----5~---75--|
E||-----------------------------|


VERSE:
guitar 1
E||-----------------------|
B||-----------------------|
G||-----------------------|x4
D||----2~-------5~---7~---|
A||----2~-------5~---7~---|
E||----0~-------3~---5~---|

guitar 2
E||------------------------------------------------------|
B||------------------------------------------------------|
G||----------------------4~--------------------------4~--|x2
D||----5~----------5~--------------5~----------5~--------|
A||-5h7---------5h7----5~---75--5h7---------5h7----5~----|
E||------------------------------------------------------|

guitar 3
E||----0~-------0~---0~---|  |-------------------------------------|
B||----8~-------0~---0~---|  |----8--------8--------8--------7-----|
G||----9~-------0~---6~---|x2|--9--9-9---9--9-9---9--9-9---9--9-9--|x2
D||----9~-------5~---7~---|  |-9-9--9---9-9--9---9-9--9---9-9--9---|
A||-------------5~---7~---|  |-------------------------------------|
E||------------------5~---|  |-------------------------------------|


PRE CHORUS:
guitar 1
E||---------------------|
B||---------------------|
G||-5~------------------|x2
D||-5~---2~---5~---7~---|
A||-3~---2~---5~---7~---|
E||------0~---3~---5~---|

guitar 2
E||-------------------------|
B||----3------3----3-----3--|
G||---0------0----0-----2---|x2
D||--0------2----0-----2----|
A||-3-----------------0-----|
E||-------0-----3-----------|


CHORUS:
guitar 1
E||---------------------|
B||---------------------|
G||-5555----------------|x2
D||-5555-2222-5555-7777-|
A||-3333-2222-5555-7777-|
E||------0000-3333-5555-|

guitar 2
E||-------------------------------7-----|
B||----8-------7--------10---------7-8--|
G||--7--7-7--7--7-7---7---7-7---7-------|x2
D||-9-9--9--9-9--9---9-9---9---9-9------|
A||-------------------------------------|
E||-------------------------------------|


BEFORE VERSE 2:
guitar 1
E||-----------------------------|
B||-----------------------------|
G||-----------------------------|
D||----2~-----------------------|
A||----2~-----------------------|
E||----0~-----------------------|

guitar 2
E||----3~----------3~----7~-----|
B||-3h5---------3h5----3~---53--|
G||-----------------------------|
D||-----------------------------|
A||-----------------------------|
E||-----------------------------|


VERSE 2:
guitar 1
E||-----------------------|  
B||-----------------------|  
G||-----------------------|x2
D||----2~-------5~---7~---|  
A||----2~-------5~---7~---|  
E||----0~-------3~---5~---|  

guitar 2
E||----3~------------------------------------------------|
B||-3h5--------------------------------------------------|
G||----------------------4~--------------------------4~--|
D||----------------5~--------------5~----------5~--------|
A||-------------5h7----5~---75--5h7---------5h7----5~----|
E||------------------------------------------------------|

then:
guitar 1(palm mute)
E|----------------------------------------------------------------------|
B|----------------------------------------------------------------------|
G|----------------------------------------------------------------------|
D|-2222222222222222-55555555-77777777-2222222222222222-55555555-7-7-7-7-|
A|-2222222222222222-55555555-77777777-2222222222222222-55555555-7-7-7-7-|
E|-0000000000000000-33333333-55555555-0000000000000000-33333333-5-5-5-5-|
   ................ ........ ........ ................ ........

guitar 2
E||-----------------------------------------|
B||-----------------------------------------|
G||-----------4-------------------4---------|
D||-----5~------5-4~--------5~------5-7~----|
A||-7-5-----------------7-5-----------------|
E||-----------------------------------------|


CHORUS (x2)


BRIDGE:
guitar 1
E||----------------------------|
B||----------------------------|
G||-7-7-7-55-5-5---------------|x2
D||-7-7-7-55-5-5-5-5-5-77-7-7--|
A||-5-5-5-33-3-3-5-5-5-77-7-7--|
E||--------------3-3-3-55-5-5--|

guitar 2
E||----------------------------|
B||----------------------------|
G||-7-7-7-55-4-4-2-4-0---------|x2
D||--------------------44-4-4--|
A||----------------------------|
E||----------------------------|


then:
guitar 1
E||-------------------------------------------------------------------|
B||-------------------------------------------------------------------|
G||-------------------------------------------------------------------|
D||-2~-------------------------------2~-------------------------------|
A||-2~-------------------------------2~-------------------------------|
E||-0~-------------------------------0~-------------------------------|

guitar 1
E||--------------------------------------------------------------------|
B||--------------------------------------------------------------------|
G||--------------------------------------------------------------------|
D||-22~--------------22~--------------22222222222222222222222222222222-|
A||-22~--------------22~--------------22222222222222222222222222222222-|
E||-00~--------------00~--------------00000000000000000000000000000000-|


guitar 2
E||------------------------------------------------------------------|
B||------------------------------------------------------------------|
G||------------------------------------------------------------------|x2
D||-2222222222222222222222222222222222222222222222222222222222222222-|
A||------------------------------------------------------------------|
E||------------------------------------------------------------------|


LAST CHORUS:
guitar 1
E||---------------------|
B||---------------------|
G||-5555----------------|x4
D||-5555-2222-5555-7777-|
A||-3333-2222-5555-7777-|
E||------0000-3333-5555-|

guitar 2
E||-------------------|  |-------------------------------7-----|
B||-55533333-88877777-|  |----8-------7--------10---------7-8--|
G||-------------------|x4|--7--7-7--7--7-7---7---7-7---7-------|x2
D||-------------------|  |-9-9--9--9-9--9---9-9---9---9-9------|
A||-------------------|  |-------------------------------------|
E||-------------------|  |-------------------------------------|


END WITH:
guitar 1
E||-----------------------------|
B||-----------------------------|
G||-----------------------------|
D||----2~-----------------------|
A||----2~-----------------------|
E||----0~-----------------------|

guitar 2
E||-------------------------------7-----|
B||----8-------7--------10---------7-8--|
G||--7--7-7--7--7-7---7---7-7---7-------|x2
D||-9-9--9--9-9--9---9-9---9---9-9------|
A||-------------------------------------|
E||-------------------------------------|
Tap to rate this tab
 
# A B C D E F G H I J K L M N O P Q R S T U V W X Y Z