Francesqa - All I Had tab

Guitar one.Intro.

e-----------------------------10---------------------------|
b-----------11------------------------------------11-------|
g-----10h12----12-------10h12---------------10h12----12----|
d---------------------------------12b----------------------|
a----------------------------------------------------------|
e----------------------------------------------------------|

e----------------------------------------------------------|
b----16-16-16----------------------------------------------|
g-------------15-15-15-------------------------------------|
d----------------------17-17-17--13-13-13--15-17-15-17-----|
a----------------------------------------------------------|
e----------------------------------------------------------|

This is my first tab so sorry if its abit sketchy.
Tap to rate this tab
 
# A B C D E F G H I J K L M N O P Q R S T U V W X Y Z