Song name
# A B C D E F G H I J K L M N O P Q R S T U V W X Y Z

Francesqa - Ghosts tab

Ghosts tab by ISpyPaul - Great band, Great song! Enjoy!

(Distortion)     
INTRO 
    PM  PM  PM  PM  PM  PM  PM  
E||----------------------------------|--------7------------7-----------------|
B||----------------------------------|------------9~-----------7~--7---9-----|
G||---4---4---4---4---4---4---4---6~-|---/9-----------/9-------------------6~|
D||----------------------------------|---------------------------------------|
A||----------------------------------|---------------------------------------|
D||---------------------------------|---------------------------------------|

(Distortion)
     PM  PM  PM  PM  PM  PM  PM  
E||----------------------------------|--------7------------7------------------|
B||----------------------------------|------------9~-----------7~--7---9------|
G||---4---4---4---4---4---4---4---6~-|---/9-----------/9-------------------6b-| 
D||----------------------------------|----------------------------------------|
A||----------------------------------|----------------------------------------|
D||---------------------------------|----------------------------------------|


(Distortion)
VERSE 1(optional)
    PM-------------------------------->  
E||---------------------------------------|
B||---------------------------------------|
G||-66666666--44444444--------------------|   Play this two times.
D||-66666666--44444444--22222222--67777777|
A||-44444444--22222222--22222222--67777777|
D||---------------------22222222--67777777|


   (Clean)  
E||------19--16------19--16-----19--16--------------|
B||-----------------------------------------17--19--|
G||---18---------18----------18---------18----------| Play this twice.
D||-------------------------------------------------|
A||-------------------------------------------------|
D||------------------------------------------------|

(Distortion)     
 CHORUS   
     PM  PM  PM  PM  PM  PM  PM  
E||----------------------------------|--------7------------7-----------------|
B||----------------------------------|------------9~-----------7~--7---9-----|
G||---4---4---4---4---4---4---4---6~-|---/9-----------/9-------------------6~|
D||----------------------------------|---------------------------------------|
A||----------------------------------|---------------------------------------|
D||---------------------------------|---------------------------------------|

(Distortion)
     PM  PM  PM  PM  PM  PM  PM  
E||----------------------------------|--------7------------7------------------|
B||----------------------------------|------------9~-----------7~--7---9------|
G||---4---4---4---4---4---4---4---6~-|---/9-----------/9-------------------6b-| 
D||----------------------------------|----------------------------------------|
A||----------------------------------|----------------------------------------|
D||---------------------------------|----------------------------------------|


(Distortion)
VERSE 2 
   PM-------------------------------->  
E||---------------------------------------|
B||---------------------------------------|
G||-66666666--44444444--------------------|   Play this two times.
D||-66666666--44444444--22222222--67777777|
A||-44444444--22222222--22222222--67777777|
D||---------------------22222222--67777777|

   (Clean)  
E||------7--4------7--4--------7--4--------------|
B||--------------------------------------5--7----|
G||---6----------6----------6---------6----------| Play this twice.
D||----------------------------------------------|
A||----------------------------------------------|
D||---------------------------------------------|

   
(Clean)  
PRECHORUS
E||---------------------------------------|------------------0-------|
B||---------------------------------------|---------------------0----|
G||---9------------9------------9---------|------------------------3-|
D||-------9--11--------11--9--------9---11|--4(let ring)-------------|
A||---------------------------------------|--------------------------|
D||--------------------------------------|--------------------------|


(Distortion)     
 CHORUS PART 1   
E||-------------7------------7-----------------|
B||-----------------9~-----------7~--7---9-----|
G||-4/6~---/9-----------/9-------------------6~|
D||--------------------------------------------|
A||--------------------------------------------|
D||--------------------------------------------|

(Distortion)
     PM  PM  PM  PM  PM  PM  PM  
E||----------------------------------|--------7------------7------------------|
B||----------------------------------|------------9~-----------7~--7---9------|
G||---4---4---4---4---4---4---4---6~-|---/9-----------/9-------------------6b-| 
D||----------------------------------|----------------------------------------|
A||----------------------------------|----------------------------------------|
D||---------------------------------|----------------------------------------|

(Distortion)     
CHORUS PART 2
     PM  PM  PM  PM  PM  PM  PM  
E||----------------------------------------| 
B||----------------------------------------|
G||7-7-7-7-7-7-9-9-10-10-10-10-10-10-10-10-| Play this twice.
D||----------------------------------------|
A||----------------------------------------|
D||---------------------------------------|

(Distortion)
BRIDGE
     PM  PM  PM  PM  PM  PM  PM  
E||-------------------------------------|
B||-------------------------------------|
G||-------------------------------------| 
D||---22222222--44444444----------------|
A||---22222222--44444444----------------|
D||---22222222--44444444---------------|

(Distortion)
                                                  (these are 11th frets, not ones)
E||------------------------------7777--------------------------------|
B||---------------------99999999------7777---------------------------|
G||--99999999-8888-6666--------------------99999999-1111111111111111-| 
D||------------------------------------------------------------------|
A||------------------------------------------------------------------|
D||-----------------------------------------------------------------|

E||------------------------------7777------------------|
B||---------------------99999999------7777-------------|
G||--99999999-8888-6666--------------------99999999-11-|
D||----------------------------------------------------|
A||----------------------------------------------------|
D||---------------------------------------------------|

   (Clean)  
E||------19--16------19--16-----19--16---------------|
B||---------------------------------------17---------|
G||---18---------18----------18---------------16--15-| 
D||--------------------------------------------------|
A||--------------------------------------------------|
D||-------------------------------------------------|

(Distortion)     
 CHORUS PART 1   
E||-------------7------------7-----------------|
B||-----------------9~-----------7~--7---9-----|
G||-4/6~---/9-----------/9-------------------6~|
D||--------------------------------------------|
A||--------------------------------------------|
D||--------------------------------------------|

(Distortion)
     PM  PM  PM  PM  PM  PM  PM  
E||----------------------------------|--------7------------7------------------|
B||----------------------------------|------------9~-----------7~--7---9------|
G||---4---4---4---4---4---4---4---6~-|---/9-----------/9-------------------6b-| 
D||----------------------------------|----------------------------------------|
A||----------------------------------|----------------------------------------|
D||---------------------------------|----------------------------------------| 

(Distortion)
                                             (These are 11th frets, not 1st frets)
E||------------------------------7777--------------------------------|
B||---------------------99999999------7777---------------------------|
G||--99999999-8888-6666--------------------99999999-1111111111111111-| 
D||------------------------------------------------------------------|
A||------------------------------------------------------------------|
D||-----------------------------------------------------------------|

(Distortion)
                                                  
E||------------------------------7777-------------------|
B||---------------------99999999------7777--------------|
G||--99999999-8888-6666--------------------99999999-11b-| 
D||-----------------------------------------------------|
A||-----------------------------------------------------|
D||----------------------------------------------------|
Tap to rate this tab
# A B C D E F G H I J K L M N O P Q R S T U V W X Y Z