Song name
# A B C D E F G H I J K L M N O P Q R S T U V W X Y Z

Francesqa - Ghosts tab

INTRO
e|----------------------7----------7----------------------|
B|--------------------------9~---------7~-------9---------|
G|-4-4-4-4-4-4-/6--/9----------/9----------/9------6b7r6--|  x2
D|--------------------------------------------------------|
A|--------------------------------------------------------|
D|--------------------------------------------------------|

************************************************************

Verse 1
e|--4~----------------------------------------------------|
B|--5~----------------------------------------------------|
G|--6~----------------------------------------------------|
D|--------------------------------------------------------|
A|--------------------------------------------------------|
D|--------------------------------------------------------|

e|--------------------------------------------------------|
B|--------------------------------------------------------|
G|--------------------------------------------------------|
D|--------------------------------------------------------|
A|--------------------------------------------------------|
D|--------------------------------------------------------|

e|------19-----------19-----------19----------------------|
B|----------21~----------21~-----------21~------17---19~--|
G|--18-----------18-----------18------------18------------|
D|--------------------------------------------------------|
A|--------------------------------------------------------|
D|--------------------------------------------------------|

e|------19-----------19-----------19----------------------|
B|----------21~----------21~-----------21~------17---19~--|
G|--18-----------18-----------18------------18------------|
D|--------------------------------------------------------|
A|--------------------------------------------------------|
D|--------------------------------------------------------|

************************************************************

CHORUS
e|----------------------7----------7----------------------|
B|--------------------------9~---------7~-------9---------|
G|-4-4-4-4-4-4-/6--/9----------/9----------/9------6b7r6--|  x2
D|--------------------------------------------------------|
A|--------------------------------------------------------|
D|--------------------------------------------------------|

************************************************************

VERSE 2
e|--------4--------0-------------------4--------0---------|
B|-----5--------5-----5~------------5--------5-----5~-----|
G|--6--------6-------------------6--------6---------------|
D|--------------------------------------------------------|
A|--------------------------------------------------------|
D|--------------------------------------------------------|

e|--------4--------0-------------------4--------0---------|
B|-----5--------5-----5~------------5--------5-----5~-----|
G|--6--------6-------------------6--------6---------------|
D|--------------------------------------------------------|
A|--------------------------------------------------------|
D|--------------------------------------------------------|

e|------7------------7------------7-----------------------|
B|----------9~-----------9~------------9~-------5----7~---|
G|--6-----------6------------6-------------6--------------|
D|--------------------------------------------------------|
A|--------------------------------------------------------|
D|--------------------------------------------------------|


e|------7------------7------------7-----------------------|
B|----------9~-----------9~------------9~-------5----7~---|
G|--6-----------6------------6-------------6--------------|
D|--------------------------------------------------------|
A|--------------------------------------------------------|
D|--------------------------------------------------------|

************************************************************

PRE CHORUS
e|--0----------0------------0----------0~---0-------------|
B|--------5~---------0~-----------5~-----------0----------|
G|-----6----------6------------6------------------3?------|
D|--------------------------------------------------------|
A|--------------------------------------------------------|
D|--------------------------------------------------------|

************************************************************

CHORUS
e|----------------------7----------7----------------------|
B|--------------------------9~---------7~-------9---------|
G|-4-4-4-4-4-4-/6--/9----------/9----------/9------6b7r6--|  x2
D|--------------------------------------------------------|
A|--------------------------------------------------------|
D|--------------------------------------------------------|

************************************************************

CHORUS PT.2
E|--------------------------------------------------------|
B|--------------------------77777777---77777777-----------|
G|--6666---8888---9999999---------------------------------|
D|--------------------------------------------------------|
A|--------------------------------------------------------|
D|--------------------------------------------------------|

E|--------------------------------------------------------|
B|--------------------------77777777----------------------|
G|--6666---8888---9999999--------------66666666-----------|
D|--------------------------------------------------------|
A|--------------------------------------------------------|
D|--------------------------------------------------------|

************************************************************
BRIDGE/SOLO
e|--------------------------------------------------------|
B|------------------------------------9-9-9-9-9-9-9-9-----|
G|-9-9-9-9-9-9-9-9--8-8-8-8--6-6-6-6----------------------|
D|--------------------------------------------------------|
A|--------------------------------------------------------|
D|--------------------------------------------------------|
                                                             X2
e|-7-7-7-7------------------------------------------------|
B|----------7-7-7-7-------------------7-7-7-7-[7-7-7-7]---|
G|-------------------9-9-9-9-9-9-9-9----------------------|
D|--------------------------------------------------------|
A|--------------------------------------------------------|
D|--------------------------------------------------------|
                                  
[DONT PLAY LAST 4 7'S SECOND TIME]  

************************************************************
LEAD RIFF 1
e|------19-----------19-----------19--------17------------|
B|----------21~----------21~-----------21~------12--------|
G|--18-----------18-----------18---------------------15~--|
D|--------------------------------------------------------|
A|--------------------------------------------------------|
D|--------------------------------------------------------|

************************************************************

CHORUS
e|----------------------7----------7----------------------|
B|--------------------------9~---------7~-------9---------|
G|-4-4-4-4-4-4-/6--/9----------/9----------/9------6b7r6--|  x2
D|--------------------------------------------------------|
A|--------------------------------------------------------|
D|--------------------------------------------------------|


************************************************************

OUTRO - PLAY PART 1 THEN PART 2 THEN
	PLAY PART 1 THEN PART 3!
e|--------------------------------------------------------|
B|------------------------------------9-9-9-9-9-9-9-9-----|
G|-9-9-9-9-9-9-9-9--8-8-8-8--6-6-6-6----------------------|
D|--------------------------------------------------------|
A|--------------------PART 1------------------------------|
D|--------------------------------------------------------|	    

e|-7-7-7-7-----------|   |----9~--------------------------|
B|----------7-7-7-7--|   |----7~--------------------------|
G|-------------------|   |--------------------------------|
D|---PART 2----------|   |------PART 3--------------------|
A|-------------------|   |--------------------------------|
D|-------------------|   |--------------------------------|
                                 
Tap to rate this tab
 
# A B C D E F G H I J K L M N O P Q R S T U V W X Y Z