Song name
# A B C D E F G H I J K L M N O P Q R S T U V W X Y Z

Francis Cabrel - Chandelle tab

----------------------------------------------------
          Chandelle - Francis Cabrel
----------------------------------------------------

Transcription et tabaltures par: Joel C.
email: jcboxfr AT yahoo DOT fr

Accordage: Standard EADGBe

Capo: 5eme case

Accords:

EADGBe    EADGBe    EADGBe    EADGBe    EADGBe
xx0232    x10330    320030    x43010    022000

EADGBe    EADGBe    EADGBe    EADGBe    EADGBe
022030    x1323x    133211    x02220    x24432

EADGBe    EADGBe    EADGBe
x20130    x20132    320003


Remarques:

Observer bien les basses alternees pour garder le rythme.

La technique main droite est simple:
Pouce pour les trois cordes basses (EAD) 
Index: G (sol)
Majeur: B (si)
Annulaire: e (mi aigue)

Structure du morceau:

J'ai decompose le morceau en plusieurs parties.
Souvent ces parties ne different que par de subtiles variations.

P1  P1  P2  P1  P3  P4  P5  P4  P6  P4  P7
P1  P8  P1  P9  P4  P5  P4  P6  P4  P7
P10 P1  P1  P11 P1  P12 P13


P1:

e|-2---------------|-----------0-----|
B|-----------3-----|-3-------3-------|
G|-------2---------|-------3---------|
D|-----0-------0---|-----0-------0---|
A|-0-------0-------|-1-------1-------|
E|-----------------|-----------------|

e|-2---------------|-----------0-----|
B|-----------3-----|-3-------3-------|
G|-------2---------|-------3---------|
D|-----0-------0---|-----0-------0---|
A|-0-------0-------|-1-------1-------|
E|-----------------|-----------------|

e|-----------------|-----------------|-----------------|
B|-3---------3-----|-3-----1---0-----|-1-----0---------|
G|-------0-------0-|-----------------|-----------0-----|
D|-----0-------0---|-----2-------2---|-----2-------2---|
A|-----------------|-3-------3-------|-3-------3-------|
E|-3-------3-------|-----------------|-----------------|

 
P2: (time: 0:25)

e|-------0---------|-0---------0-----|
B|-0---------0-----|-------0---------|
G|-----------------|-----------------|
D|-----2-------2---|-----2-------2---|
A|-----------------|-----------------|
E|-0-------0-------|-0-------0-------|


P3: (time: 0:41)

e|-----------0-----|-0---------------|
B|-0-----3---------|-----------0-----|
G|-----------------|-------0---------|
D|-----2-------2---|-----2-------2---|
A|-----------------|-----------------|
E|-0-------0-------|-0-------0-------|


P4: (time: 0:44)

e|-----------------|-----------------|
B|-3---------3-----|-3---------3-----|
G|-------2-------2-|-------2-------2-|
D|-----3-------3---|-----3-----------|
A|-1-------1-------|-1-------1---3---|
E|-----------------|-----------------|


P5: (time: 0:48)

e|-2---------------|-0---------------|
B|-----------3-----|---3-------3-----|
G|-------2---------|-------2---------|
D|-0---0-------0---|-----0-------0---|
A|---------0-------|-0-------0-------|
E|-----------------|-----------------|


P6: (time: 0:54)

e|-----------------|-----------0-----|
B|-1---------1-----|-2-----3---------|
G|-------2---------|---2-------------|
D|-----3-----------|-----2-------2---|
A|-------------3---|-0-------0-------|
E|-1-------1-------|-----------------|


P7: (time: 1:01)

e|-0^2-------0-----|-0^2-------------|
B|-------3-------3-|-----------------|
G|-----2-------2---|-----------------|
D|-0-------0-------|-0---------------|
A|-----------------|-----------------|
E|-----------------|-----------------|


P8: (time: 1:17)

e|-----------0-----|-----------------|
B|-0-----3---------|-0---------------|
G|-----------------|-----------------|
D|-----2-------2---|-----2-----0-----|
A|-----------------|-------0-2-------|
E|-0-------0-------|-0---------------|


P9: (time: 1:33)

e|-----------0-----|-----------------|
B|-0-----3---------|-3---------3-----|
G|-----------------|-------2^4-------|
D|-----2-------2---|-----2-------0---|
A|-----------------|-----------------|
E|-0-------0-------|-0-------0-------|


P10: (time: 1:57)

e|-----------------|-2---------------|
B|-3---------3-----|-----------3-----|
G|-------4---------|-------4---------|
D|-----4-------4---|-----4-------4---|
A|-2-------2-------|-2-------2-------|
E|-----------------|-----------------|

e|-----------0-----|-----------0-----|
B|-3-----3---------|-3-----3---------|
G|-----------------|-----------------|
D|-----0-------0---|-----0-------0---|
A|-----------------|-----------------|
E|-0-------0-------|-0-------0-------|

e|-----------2-----|-2---------------|
B|-3---------------|-----------3-----|
G|-------4---------|-------4---------|
D|-----4-------4---|-----4-------4---|
A|-2-------2-------|-2-------2-------|
E|-----------------|-----------------|

e|-----------------|-2---------2-----|
B|-3---------0-----|-------3---------|
G|-------1---------|-----2-------2---|
D|-----0-------0---|-0-------0-------|
A|-----------------|-----------------|
E|-0-------0-------|-----------------|

e|-2-----0---------|-----------0-----|-----------------|
B|---3-------3-----|-2-----3---------|-2-----0---------|
G|-----2-------2---|-----------------|-----------2-----|
D|-0-------0-------|-----2-------2---|-----2-------2---|
A|-----------------|-0-------0-------|-0-------0-------|
E|-----------------|-----------------|-----------------|

e|-----------2-----|-2---------0-----|
B|-3---------------|-------3---------|
G|-------4---------|-----------------|
D|-----4-------4---|-----4-------4---|
A|-2-------2-------|-2-------2-------|
E|-----------------|-----------------|

e|-----------0-----|-------0---------|
B|-3-----3---------|-3---------3-----|
G|-----------------|-----------------|
D|-----0-------0---|-----0-------0---|
A|-----------------|-----------------|
E|-0-------0-------|-0-------0-------|

e|-------2---------|-2---------------|
B|-3---------3-----|-----------3-----|
G|-----------------|-------4---------|
D|-----4-------4---|-----4-------4---|
A|-2-------2-------|-2-------2-------|
E|-----------------|-----------------|

e|-2---------------|-0^2-------2-----|
B|-----------0-----|-------3-------3-|
G|-------1---------|-----2-------2---|
D|-----0-------0---|-0-------0-------|
A|-----------------|-----------------|
E|-0-------0-------|-----------------|

e|-2-----0---------|-----------0-----|-----------------|
B|---3-------3-----|-2-----3---------|-2-----0---------|
G|-----2-------2---|-----------------|-----------2-----|
D|-0-------0-------|-----2-------2---|-----2-------0---|
A|-----------------|-0-------0-------|-0-------0-------|
E|-----------------|-----------------|-----------------|

e|-----------------|-----------------|-----------------|-3-|
B|-3---------3-----|-2---------2-----|-0---------0-----|---|
G|-------4---------|-------4---------|-------0---------|---|
D|-----4-------4---|-----4-------4---|-----0-------0---|---|
A|-2-------2-------|-2-------2-------|-----------------|---|
E|-----------------|-----------------|-3-------3-------|-3-|


P11: (time: 3:06)

e|-----------------|-----------------|
B|-0---------0-----|-0---------0-----|
G|-------0---------|-------0---------|
D|-----2-------2---|-----2-------2---|
A|-----------------|-----------------|
E|-0-------0-------|-0-------0-------|


P12: (time: 3:23)

e|-0---------------|
B|-3---------------|
G|-0---------------|
D|-2---------------|
A|-3---------------|
E|-0---------------|


P13: (time: 3:24) a repeter jusqu'a la fin du morceau...

e|-----------------|-----------------|
B|-3---------3-----|-3---------3-----|
G|-------3-------3-|-------3-------3-|
D|-----3-------3---|-----3-----------|
A|-1-------1-------|-1-------1---3---|
E|-----------------|-----------------|

e|-----------------|-----------------|
B|-3---------3-----|-3---------3-----|
G|-------2-------2-|-------2-------2-|
D|-0---0-------0---|-----0-------0---|
A|---------0-------|-0-------0-------|
E|-----------------|-----------------|

********************************************************
Tap to rate this tab
# A B C D E F G H I J K L M N O P Q R S T U V W X Y Z