Song name
# A B C D E F G H I J K L M N O P Q R S T U V W X Y Z

Francis Dunnery - Immaculate tab

pretty easy song..

e----0-0--0-0--0-0---0----0-0--0-0--0-0-----0------------------|
B----5-5--4-4--2-2---0----0-0--0-0--0-0-----0------------------|
G-------------------------2-2--1-1--0-0-----2------------------|     x3
D-------------------------------------------2------------------|
A-------------------------------------------0------------------|
E--------------------------------------------------------------|


e----------------------------------------------|
B----------------------------------------------|
G----4-4---x-x---6--7---x-x-x--------|     x20-|
D----x-x---x-x---x--x---x-x-x------------------|
A----2-2---x-x---4--5---x-x-x------------------|
E----0-0---x-x---0--0---x-x-x------------------|
Tap to rate this tab
# A B C D E F G H I J K L M N O P Q R S T U V W X Y Z