Song name
# A B C D E F G H I J K L M N O P Q R S T U V W X Y Z

Francis M - Superproxy2k6 tab

Song: Superproxy2k6
Artist: Francis M.
Transcribed by: Faolafini
email: faoey0915@yahoo.com / behemoth1111@yahoo.com

Legend:

	s - slide
	r - release
	b - bend
	fb - full bend
	~ - vibrato
	p - pull off
	h- hammer on

Riff Bb(break)
[]--------------------|
[]--------------------|
[]--------------------|
[]---6---8------------|
[]---6---8------------|
[]---6---6------------|
Note: Use this riff on verses with chords Bb

Riff Bb(break)
[]--------------------|
[]--------------------|
[]---6---8------------|
[]---6---8------------|
[]---6---6------------|
[]--------------------|
Note: Use this riff on verses with chords Eb

Riff A
[]----------------------------------|
[]----------------------------------|
[]------6--6-----6--6-----6--8-8fb--|
[]---8--------8--------8------------|
[]----------------------------------|
[]----------------------------------|  4x

Riff B
[]----------------------------------|
[]----------------------------------|
[]---------------6--8--8fb----------|
[]---8--8-----8---------------------|
[]---8--8---------------------------|
[]---6--6---------------------------|  4x

Riff C
[]----------------------------------|
[]----------------------------------|
[]-----------------------------6~~~-|
[]---8--8---8--8---6--8--6--8-------|
[]---8--8---8--8--------------------|
[]---6--6---6--6--------------------|

Riff D
[]----------------------------------|
[]----------------------------------|
[]-----------------------------8~~~-|
[]---8--8---8--8---6--8--6--8-------|
[]---8--8---8--8--------------------|
[]---6--6---6--6--------------------|

Riff E
[]--------------------|
[]--------------------|
[]------6--8-8fb------|
[]---8----------------|
[]--------------------|
[]--------------------|

Riff F
[]---------------------------------------------------------------|
[]---------------------------------------------------------------|
[]---------------------------------------------------------------|
[]---8--8---8--8--------------------8--8---8--8------------------|
[]---8--8---8--8------4--6-4s6~-----8--8---8--8------4--6-6s8~---|
[]---6--6---6--6---6----------------6--6---6--6---6--------------|

INTRO:

Drum Beat...
Turn Tables...
	Start at 00:07
Riff A(4x)
Riff B(4x)
Riff C
Riff D
Riff C
Riff D

VERSE:

  Bb(break)  	Riff E
 Sawa ka na ba

         Bb(break)       Eb(break)
 Sa mga hassle sa buhay mo

 Bb(break)             Eb(break)
 Ayaw mo na bang mag-isip para

       Bb(break)  Riff E
 Sa sarili

      Bb(break)            Eb(break)
 Tinatamad ka nang bumiyahe

           Bb(break)            Eb(break)
 Ang gusto mo'y nakahiga na lang

   Bb(break)              Eb(break)
 Napapagod ka na ba sa kakayakap

 Bb(break)  Eb(break)
 Sa asawa mo

REFRAIN:

 F#                G#
 Ito ang kailangan mo

 F#                  E
 I-dial lang ang telepono

CHORUS:

 C#                   D#
 Hindi na dapat maghirap
             C#
 Sa iisang iglap
                   D#
 Ang buhay mo ay sasarap huwag nang mag-atubili
  F
 Kumuha(Gumamit) na ng superproxy

INTERLUDE: Riff B(2x)

VERSE 2:(same chords as verse 1)

Ako ay kaibigan
Na lagi mong maasahan
Umulan man at umaraw ay nariyan 'pag kailangan
Ito ay special offer
Sa mga taong katulad mo
Gamitin ang iyong bulsa para guminhawa

REFRAIN:

 F#                G#
 Ito ang kailangan mo

 F#                      E
 Isaksak lang ang modem nyo..

Repeat CHORUS

ADLIB:
Riff B(4x) With Riff F(2x)(sabay sila)

[]----------------------------------|
[]---------6--8-8fbr-8p6-9fb--------|
[]---7~~~---------------------------|
[]----------------------------------|
[]----------------------------------|
[]----------------------------------|


[]-------9--11-11br--9----------------------------|
[]---11-----------------11--9--11--8--------------|
[]------------------------------------10--8-------|
[]------------------------------------------------|
[]------------------------------------------------|
[]------------------------------------------------|

[]----------------------------------|
[]----------------------------------|
[]---------6--8--8s10~--------------|
[]---6--8-----------------8-8p6-8---|
[]----------------------------------|
[]----------------------------------|


[]-------9--11-11br--9----------------------------|
[]---11-----------------11-----11~--9~--8~--------|
[]-----------------------------------------8~--7~-|
[]------------------------------------------------|
[]------------------------------------------------|
[]------------------------------------------------|

[]---------------------------------------|
[]---------------------------------------|
[]---s8~--8-7~--3~--10~--12~--13~--15~---|
[]---------------------------------------|
[]---------------------------------------|
[]---------------------------------------|

REFRAIN:

 F#                G#
 Ito ang kailangan mo

 F#                  E
 I-dial lang ang teleponoooooooaahh~~

Repeat CHORUS
Riff B(4x) With Riff F(2x)(sabay sila)

Sa may "Rap" part use this two riffs
Riff C & D
Lagyan nyo nang variations pag patapos na ung rap..

Bb(Break)!!!

PABATI: Beh!, I LOVE YOU! KAW INSPIRATION KO! Lee!
	Binabati ko din ung canton boys (Stuart, Rick, Paul, Morris, Raymond)
	Akatsuki Guild RoK On!!
		 No-Hindrance  /no1
		 ~Dieana~      /e10
		 -=_YUFA_=-    /e9
		 Harou         /e5
		 zer0max       /e4

FEEL FREE TO EMAIL ME FOR QUESTIONS OR ANYTHING YOU WANT TO SHARE!! BAHALA KAYO!!!
MORE POWER TO ULTIMATE-GUITAR!!!
KEEP ON ROCKIN' IN THE FREE WORLD!!!
Tap to rate this tab
 
# A B C D E F G H I J K L M N O P Q R S T U V W X Y Z