Song name
# A B C D E F G H I J K L M N O P Q R S T U V W X Y Z

Francis Rossi - Caroline tab

Tabbed by: Belavista Man
On: 18/07/2010
E-mail: anthonybentley@hotmail.co.uk

A simple one. Different to the original Quo one, but a little easier to play, I think.

                F
e|-----------------------------------------------------------------------|
B|-----------------------------------------------------------------------|
G|-----10-12-12b14-14-14-14-14-14-14-14-14-14-14-14-14-14-14-12-10----10-|
D|-/12-------------------------------------------------------------12----|
A|-----------------------------------------------------------------------|
E|-----------------------------------------------------------------------|

               Bb7
e|----------------------------------------------------------------------|
B|----------------------------------------------------------------------|
G|----10-12-12b13-13-13-13-13-13-13-13-13-13-13-13-13-13-13-12-10----10-|
D|-12-------------------------------------------------------------12----|
A|----------------------------------------------------------------------|
E|----------------------------------------------------------------------|

               F                   C                F
e|------------------------------------------------------------|
B|------------------------------------------------------------|
G|----10-12-12b14-b14-----10-12-12b14-12~-----10-12-12~---12\-|
D|-12------------------12------------------12-----------------|
A|------------------------------------------------------------|
E|------------------------------------------------------------|

| /   slide up
| \   slide down
| h   hammer-on
| p   pull-off
| ~   vibrato
| +   harmonic
| x   Mute note
| b   Bend
| pb  Pre-bend
| br  Bend release
| pbr Pre-bend release
| brb Bend release bend
Tap to rate this tab
 
# A B C D E F G H I J K L M N O P Q R S T U V W X Y Z