Song name
# A B C D E F G H I J K L M N O P Q R S T U V W X Y Z

Francis Scott Key - Star Spangled Banner tab

HOPE U LIKE... AND ROCK ON!!!!!

REPEAT 2X
E--------------------0------------------------0--------------------------|
B----------------1------3--1---------------------3--1--0-----0--1--1-----|
G--0-----------0--------------------0---0--0--------------2-----------0--|
D-----2-----2-----------------2--4---------------------------------------|
A--------3---------------------------------------------------------------|
E------------------------------------------------------------------------|

E------------------------------------------------------------------------|
B------------------------------------------------------------------------|
G------------------------------------------------------------------------|
D--2---------------------------------------------------------------------|
A------3-----------------------------------------------------------------|
E------------------------------------------------------------------------|





E--0--0--0--1--3--3---1--0-----0--1--1---1--0------------------------------|
B---------------------------3-------------------3--1--0------0--1----------|
G---------------------------------------------------------2----------------|
D------------------------------------------------------------------2--4--0-|
A--------------------------------------------------------------------------|
E--------------------------------------------------------------------------|

E------------------------------0--1--0------------------------------0--1--3-|
B-----1--1--1--0------------3-----------3--1--1---0-----------1--3----------|
G--0--------------2--2--2-------------------------------0--0----------------|
D---------------------------------------------------------------------------|
A---------------------------------------------------------------------------|
E---------------------------------------------------------------------------|

E--------0---1---------------------------------------------------------------|
B--1--3---------3----1-------------------------------------------------------|
G----------------------------------------------------------------------------|
D----------------------------------------------------------------------------|
A----------------------------------------------------------------------------|
E----------------------------------------------------------------------------|
Tap to rate this tab
 
# A B C D E F G H I J K L M N O P Q R S T U V W X Y Z