Song name
# A B C D E F G H I J K L M N O P Q R S T U V W X Y Z

Francis Scott Key - Star Spangled Banner Acoustic tab

Star Spangled Banner Acoustic
Francis Scott Key
(billkershul@yahoo.com)


   E               
e|----------------0--2-/-4--2--0-----------------------------------|
B|-0-----------0---------------------------------------------------|
G|----1-----1-----1--2-/-4--2--1--1--3--4------4-----4-----4-----4-|
D|-2-----2-----2------------------2--4--4----4-----4-----4-----4---|
A|----2-----2------------------------------2-----0-----------------|
E|-------0---------------------------------------------4-----2-----|


                              E
e|-------4--2--0--------------0--0---------------------|
B|-0--0-----------4-----2--4--------0------------------|
G|-------4--2--1--------------1--1-----1---------------|
D|-2--2-----------4-----2--4--------2-----2------------|
A|-------------------2-----------------2---------------|
E|----------------------------------------0------------|


e|-2-/-4--4-4--5--7--7----5--4--2--4--5--5-------------|
B|-----------------------------------------------------|
G|-2-/-4--4-4--6--9--9----6--4--2--4--6--6-------------|
D|-----------------------------------------------------|
A|-----------------------------------------------------|
E|-----------------------------------------------------|

                           E
e|-5--4--2--0--------------0--0------------------------|
B|-------------4-----2--4--------0---------------------|
G|-6--4--2--1--------------1--1-----1------------------|
D|-------------4-----2--4--------2-----2---------------|
A|----------------2-----------------2------------------|
E|-------------------------------------0---------------|


e|----0--0-0--------------2-/-4--5--4--2--0--0----------|
B|-0----------4--2--2--2------------------------4-------|
G|----1--1-1--------------2-/-4--6--4--2--1--1----------|
D|-2----------4--2--2--2------------------------4-------|
A|------------------------------------------------2-----|
E|------------------------------------------------------|

                                           E
e|-------0--2--4--5--7--12--0--2--4--5--2------------0-|
B|-0--0--------------------------------------------0---|
G|-------1--2--4--6--9------1--2--4--6--2--------1-----|
D|-2--2----------------------------------------2-------|
A|-------------------------------------------2---------|
E|-----------------------------------------0-----------|
Tap to rate this tab
 
# A B C D E F G H I J K L M N O P Q R S T U V W X Y Z