Song name
# A B C D E F G H I J K L M N O P Q R S T U V W X Y Z

Francisco Tarrega - Estudio tab

-----------------------------------------------------------------------------
			     ESTUDIO - Francisco Tarrega 
-----------------------------------------------------------------------------
Tabbed by: Travis Wong 
Email: travis_wong@hotmail.com

Tuning: EADGBe

e|--0---3---3----|--3---2---2----|--5---3---2----|--7---7---7---------------|
B|---0---0---0---|---1---1---1---|---4---4---4---|---0---0---0--------------|
G|----0---0---0--|----2---2---2--|----2---2---2--|----0---0---0-------------|
D|---------------|---------------|---------------|--------------------------|
A|---------------|--0------------|--2------------|--------------------------|
E|--0------------|---------------|---------------|--0-----------------------|

e|--0---3---3----|--3---2---2----|--5---3---2----|--0----0------------------|
B|---0---0---0---|---1---1---1---|---4---4---4---|-------0------------------|
G|----0---0---0--|----2---2---2--|----2---2---2--|-------0------------------|
D|---------------|---------------|---------------|--------------------------|
A|---------------|--0------------|--2------------|--------------------------|
E|--0------------|---------------|---------------|--0-----------------------|

e|--0---3---3----|--3---2---2----|--5---3---2----|--7---7---7---------------|
B|---0---0---0---|---1---1---1---|---4---4---4---|---0---0---0--------------|
G|----0---0---0--|----2---2---2--|----2---2---2--|----0---0---0-------------|
D|---------------|---------------|---------------|--------------------------|
A|---------------|--0------------|--2------------|--------------------------|
E|--0------------|---------------|---------------|--0-----------------------|

e|--0---3---3----|--3---2---2----|--5---3---2----|--0----0------------------|
B|---0---0---0---|---1---1---1---|---4---4---4---|-------0------------------|
G|----0---0---0--|----2---2---2--|----2---2---2--|-------0------------------|
D|---------------|---------------|---------------|--------------------------|
A|---------------|--0------------|--2------------|--------------------------|
E|--0------------|---------------|---------------|--0-----------------------|

e|--0---3---7----|--7---5---8----|--2---3---5----|--5---3---7---------------|
B|---0---0---0---|---5---5---5---|---1---1---3---|---0---0---0--------------|
G|----0---0---0--|----5---5---5--|----2---2---5--|----0---0---0-------------|
D|---------------|---------------|--0------------|--------------------------|
A|---------------|--0------------|---------------|--------------------------|
E|--0------------|---------------|---------------|--3-----------------------|

e|--0---3---3----|--3---2---2----|--5---3---2----|--0----0------------------|
B|---0---0---0---|---1---1---1---|---4---4---4---|-------0------------------|
G|----0---0---0--|----2---2---2--|----2---2---2--|-------0------------------|
D|---------------|---------------|---------------|--------------------------|
A|---------------|--0------------|--2------------|--------------------------|
E|--0------------|---------------|---------------|--0-----------------------|

e|--0---3---7----|--7---5---8----|--2---3---5----|--5---3---7---------------|
B|---0---0---0---|---5---5---5---|---1---1---3---|---0---0---0--------------|
G|----0---0---0--|----5---5---5--|----2---2---5--|----0---0---0-------------|
D|---------------|---------------|--0------------|--------------------------|
A|---------------|--0------------|---------------|--------------------------|
E|--0------------|---------------|---------------|--3-----------------------|

e|--0---3---3----|--3---2---2----|--5---3---2----|--0----0------------------|
B|---0---0---0---|---1---1---1---|---4---4---4---|-------0------------------|
G|----0---0---0--|----2---2---2--|----2---2---2--|-------0------------------|
D|---------------|---------------|---------------|--------------------------|
A|---------------|--0------------|--2------------|--------------------------|
E|--0------------|---------------|---------------|--0-----------------------|

| /  slide up
| \  slide down
| h  hammer-on
| p  pull-off
| ~  vibrato
| +  harmonic
| x  Mute note
=============================================================================
Tap to rate this tab
 
# A B C D E F G H I J K L M N O P Q R S T U V W X Y Z