Song name
# A B C D E F G H I J K L M N O P Q R S T U V W X Y Z

Francisco Tarrega - Prelude 11 In D Major tab

E-|---Song:-Prelude-11-in-D-Major------------------|
A-|---Author:-Francisco-Tarrega--------------------|
D-|---Transcription-by:Christian Liang-------------|
G-|---E-Mail:christian.liang@gmail.com-------------|   
B-|---http://www.chrisliang.com--------------------|
E-|---Enjoy!---------------------------------------|

Prelude in D Major- Francisco Tarrega


I have included the left (LH) and right (RH) hand fingering. 
p = pulgar = thumb
i = indice = index
m = medio = middle
a = anular = ring


Triplets.
8 bars played twice.
4 right hand chords- pima, pim, pma and pia
3 pull offs-Bar [1],[2] and [7]
1 hammer on-Bar [3]

[1] X...........                                  II...........   

e|--10---12---14---12-p-10------|--5----5----5----3-p--2-------|
B|*-10-------------0---------12-|--7--------------2---------5--|
G|--11-------------0------------|-----------------2------------|
D|--0---------------------------|--7---------------------------|
A|*-----------------------------|-----------------0------------|
E|------------------------------|------------------------------|
    |    |    |    |    |    |     |    |    |    |    |    |      
RH  a              m               a              a               
    m              i               m              m               
    i              p               p              i               
    p                                             p

LH  1    3    4    3    1    4     1    1    1    2         4     
    1                              4              1               
    2                              3              1               


[3]
    II.........                   II.........................
E|------------------------------|-------2--------------2-------|
B|--3--h-5----3----0----2----3--|--2---------5----4---------5--|
G|-----------------0------------|--3--------------2------------|
D|--4--------------2------------|--4---------------------------|
A|--2---------------------------|-----------------2------------|
E|------------------------------|------------------------------|
  |    |    |    |    |    |     |    |    |    |    |    | 
R a              m               m              a
  i              i               i              m
  p              p               p              p

L 2    4    2    1    2    4     1    1    4    3    1    4 
  3                              2              1
  1                              3              1

[5]                                               VI.........

e|------------2----5----3----2--|--0----3----7----10---9----7--|
B|-------4---------0------------|--0--------------6------------|
G|--4---------------------------|--0---------------------------|
D|-----------------2------------|-----------------6------------|
A|------------------------------|------------------------------|
E|------------------------------|------------------------------|
    |    |    |    |    |    |     |    |    |    |    |    |    
RH                 a               m              a               
                   m               i              m               
                   p               p              p               
                                                                                 

LH  3    4    1    4    3    2          1    4    4    4    2     
                   1                              1               
                                                  1               

[3]

E|--5----7---------5--p-3----0--|------------------------------|
B|--7---------7----2------------|--3--------------------------*|
G|-----------------0------------|------------------------------|
D|--7---------------------------|--4---------------------------|
A|-----------------0------------|--5--------------------------*|
E|------------------------------|------------------------------|
    |    |    |    |    |    |     |  
R   a              a               a
    m              m               i
    p              i               p
                   p
L   1    4    3    4    2          1
    3              1               2
    2                              3
Tap to rate this tab
 
# A B C D E F G H I J K L M N O P Q R S T U V W X Y Z