Song name
# A B C D E F G H I J K L M N O P Q R S T U V W X Y Z

Francisco Tarrega - Prelude No 28 In D Major tab

E-|---Song:-Prelude-in-G-Major---------------------|
A-|---Author:-Francisco-Tarrega--------------------|
D-|---Transcription-by:Christian Liang-------------|
G-|---E-Mail:christian.liang@gmail.com-------------|
B-|---http://www.chrisliang.com--------------------|
E-|---Enjoy!---------------------------------------|

Prelude 28 in G Major- Francisco Tarrega

cVII means half barre at 7th fret
VII means full barre at 7th fret
== means suspend/hold note


Play AABBA

Part A


[1]cVII....       VIII....

E|-7----------10|-8----------7-|-5----------7-|-3-p-2--3-----|
B|-8-p-7--8---7-|--------------|--------------|-0----------3-|
G|-0----------0-|-9-p-8--9---7-|-5----------7-|-0------------|
D|--------------|--------------|-4-p-3--4---0-|--------------|
A|--------------|-10-----------|--------------|--------------|
E|--------------|--------------|--------------|--------------|
LH 1          4   1          4   4          4   3   2  3   1
   2   1  2   1   2   1  2   3   3          3
                  3              2   1  2

[5]
              V...........   III....,
E|--------------|--------------|-------------|--------------|
B|-3----------6-|-5----------5-|-3---------1-|-0------------|
G|-4----------7-|-5----------5-|-4-p-3--4--2-|-0------------|
D|-5-p-4--5---6-|-7-p-6--7-----|-0-----------|--------------|
A|--------------|--------------|-------------|--------------|
E|--------------|------------8-|-------------|-----2-h-3----|

L  1          4   1          1   1         1       2   3
   3          2   1          1   2   1  2  2
   4   2  4   3   3   2  3   4


Part B

[9]                          II..........

E|-3------------|-5------------|-2----------7-|-5----------3-|
B|-5-p-4--5---0-|--------------|-4-p-3--4---4-|-4-p-0--4---5-|
G|--------------|-5-p-4--5---2-|--------------|--------------|
D|--------------|--------------|--------------|--------------|
A|--------------|-0------------|-2------------|--------------|
E|-0------------|--------------|--------------|-0------------|

LH 1   2  3       4              1          4   2          1
   3              3   2  3   1   3   2  3   1   1      1   3
                                 1

[13]
                                 cIII      II
E|-7----------10|-8----------5-|-3---------2-|-0------------|
B|-8-p-5--8---9-|-10-p-9-10--7-|-5-----------|--------------|
G|--------------|--------------|-4-p-3--4--2-|-0------------|
D|--------------|-7----------4-|-------------|-2------------|
A|--------------|--------------|-----------2-|--------------|
E|-0------------|--------------|-------------|----0---------|

R  2          2   2          2   1         1   1
   3   1  3   1   4    3  4  4   3         1
                  1          1   2   1  2  1
Tap to rate this tab
# A B C D E F G H I J K L M N O P Q R S T U V W X Y Z