Francisco Tarrega - Danza Mora tab

\---Song:-Danza-Mora------------------\
 \---Composer:-Francisco-Tarrega-------\
  \---Transcription-by:Christian Liang--\
  /---E-Mail:christian.liang@gmail.com--/
 /---http://www.chrisliang.com---------/
/---Enjoy!----------------------------/

==========================================================================
                Danza mora by Francisco Tarrega (1852-1909)
==========================================================================

Time 2/4

Key E minor
                                      * 
[1]             ^   VII...........    Ligero.........................
E|--------------|---7=============-|--11--14--11---------------------|
B|--------------|---7=============-|--------------12--13p-10---------|
G|--------------|---8=============-|--------------------------11--9--|
D|--------------|---9=============-|---------------------------------|
A|--------------|---9=============-|---------------------------------|
E|--------------|---7=============-|---------------------------------|
    |   |   |   |   |   |   |   |     |   |   |   |   |   |   |   |  
    |               |                 |               |         
L                                     2   4   2   3   4   1   2   1


[3]..................................................................
E|---------------------------------|---------------------------------|
B|---------------------------------|---------------------------------|
G|--8---11--8----------------------|---------------------------------|
D|--------------9---10p-7----------|---------------------------------|
A|--------------------------9---7--|--6---9---6----------------------|
E|---------------------------------|--------------7---8-p-5---3---2/8|
    |   |   |   |   |   |   |   |     |   |   |   |   |   |   |   |  
    |               |                 |               |         
L   1   4   1   3   4   1   4   2     1   4   1   3   4   1   2   1


[5] 
E|---------------------------------|------------------0-------0------|
B|---------------------------------|------------------8-------8------|
G|---------------------------------|------------------5-------5------|
D|---------------------------------|---------------------------------|
A|--0==============================|==================---------------|
E|--8==============================|==================---------------|
    |   |   |   |   |   |   |   |     |   |   |   |   |   |   |   |  
    |               |                 |               |         
L   2                                                 4       4
                                                      1       1

[7] 1/2V            III................
E|--5------------------------------|------------------0-------0------|
B|--5------------------------------|------------------8-------8------|
G|--5---------------5--------------|--5---------------5-------5------|
D|--7-----------------------5------|---------------------------------|
A|------------------3--------------|--3------------------------------|
E|--------------------------3------|---------------------------------|
    |   |   |   |   |   |   |   |     |   |   |   |   |   |   |   |  
    |               |                 |               |         
L   1               4       3         4               4       4
    1               1       1         1               1       1
    1
    3
                            * to coda
[9] 1/2V            III................
E|--5------------------------------|------------------0-------0------|
B|--5------------------------------|------------------8-------8------|
G|--5---------------5--------------|--5---------------5-------5------|
D|--7-----------------------5------|---------------------------------|
A|------------------3--------------|--3------------------------------|
E|--------------------------3------|---------------------------------|
    |   |   |   |   |   |   |   |     |   |   |   |   |   |   |   |  
    |               |                 |               |         
L   1               4       3         4               4       4
    1               1       1         1               1       1
    1
    3


[11]1/2V..........................                    II.............
E|--5=============================-|------------------2-------2-----||
B|--5=============================-|------------------2-------5-----||
G|--5=============================-|------------------3-------3-----||
D|--7=============================-|--------------------------------||
A|---------------------------------|--------------------------------||
E|---------------------------------|------------------2-------2-----||
    |   |   |   |   |   |   |   |     |   |   |   |   |   |   |   |  
    |               |                 |               |         
L   1                                                 1       1
    1                                                 1       4
    1                                                 2       2
    3                                                 1       1

[13]......................................            VII............
E|--2------------------------------|---------------------------------|
B|--4------------------------------|---------------------------------|
G|--4------------------------------|---------------------------------|
D|------------------4-------4------|--4------------------------------|
A|--2---------------2-------2------|--2---------------9-------9------|
E|---------------------------------|------------------7-------7------|
    |   |   |   |   |   |   |   |     |   |   |   |   |   |   |   |  
    |               |                 |               |         
L   1               3       3         3               2       2
    4               1       1         1               1       1
    3
    1
                                      / 3 \
[15].................................................................
E|----------7---9---11--9---7------|---------------------------------|
B|------------------------------11-|--9h11p9--7=====================-|
G|---------------------------------|---------------------------------|
D|---------------------------------|---------------------------------|
A|--9------------------------------|------------------9-------9------|
E|--7---------------7-------7------|--7---------------7-------7------|
    |   |   |   |   |   |   |   |     |   |   |   |   |   |   |   |  
    |               |                 |               |         
L   2       1   3   4   3   1   4     3 4  3  1       2       2
    1               1       1                         1       1

R           m   i   m   i   m   i     m       a

                                      / 3 \
[17].................................................................
E|----------7---9---11--9---7------|---------------------------------|
B|------------------------------11-|--9h11p9--7=====================-|
G|---------------------------------|---------------------------------|
D|---------------------------------|---------------------------------|
A|--9------------------------------|------------------9-------9------|
E|--7---------------7-------7------|--7---------------7-------7------|
    |   |   |   |   |   |   |   |     |   |   |   |   |   |   |   |  
    |               |                 |               |         
L   2       1   3   4   3   1   4     3 4  3  1       2       2
    1               1       1                         1       1

R           m   i   m   i   m   i     m       a 

                                      / 3 \
[19].................................................................
E|----------------------7---8---10-|--8-10-8--7=====================-|
B|----------7---8---10-------------|---------------------------------|
G|---------------------------------|---------------------------------|
D|---------------------------------|---------------------------------|
A|--9------------------------------|------------------9-------9------|
E|--7---------------7-------7------|--7---------------7-------7------|
    |   |   |   |   |   |   |   |     |   |   |   |   |   |   |   |  
    |               |                 |               |         
L   3       1   2   4   1   2   4     2 4 2   1       3       3
    1               1       1         1               1       1
R           m   i   m   i   m   i     m       a   

                                      / 3 \
[21].................................................................
E|----------------------7---8---10-|--8-10-8--7=====================-|
B|----------7---8---10-------------|---------------------------------|
G|---------------------------------|---------------------------------|
D|---------------------------------|---------------------------------|
A|--9------------------------------|------------------9-------9------|
E|--7---------------7-------7------|--7---------------7-------7------|
    |   |   |   |   |   |   |   |     |   |   |   |   |   |   |   |  
    |               |                 |               |         
L   3       1   2   4   1   2   4     2 4 2   1       3       3
    1               1       1         1               1       1
R           m   i   m   i   m   i     m       a   


[23].................................................................
E|---------------------------------|---------------------------------|
B|------------------8--------------|--7---------------8--------------|
G|--------------7-----------7------|--7-----------7-----------7------|
D|----------9---------------9------|--7-------9---------------9------|
A|--9------------------------------|------------------7-------7------|
E|--7---------------7-------7------|--10-----------------------------|
    |   |   |   |   |   |   |   |     |   |   |   |   |   |   |   |  
    |               |                 |               |         
L   3       4   1   2       1         1       3   1   2       1
    1               1       4         1               1       3
                            1         1                       1
                                      4

[25]................................  VI.............................
E|---------------------------------|---------------------------------|
B|--7---------------8--------------|--7------------------------------|
G|--7-----------7-----------7------|--6---------------6-------6------|
D|--7-------9---------------9------|--8------------------------------|
A|------------------7-------7------|--9---------------9-------9------|
E|--10-----------------------------|---------------------------------|
    |   |   |   |   |   |   |   |     |   |   |   |   |   |   |   |  
    |               |                 |               |         
L   1       4   1   2       1         2               1       1
    1               1       4         1               4       4
    1                       1         3
    4                                 4


[27]
E|---------------------------------|----------7---8---10--8---7------|
B|------------------------------7--|--8---10----------------------10-|
G|--7-------------------7---9------|---------------------------------|
D|----------7---9---10-------------|---------------------------------|
A|------10-------------------------|---------------------------------|
E|--0---------------0-------0------|--0---------------0-------0------|
    |   |   |   |   |   |   |   |     |   |   |   |   |   |   |   |  
    |               |                 |               |         
L   1   4   1   3   4   1   3   1     2   4   1   2   4   2   1   4

                                                   
[29]                                  II.............................
E|----------0----------------------|--2------------------------------|
B|--8---7-------3---1---0-------0--|--2------------------------------|
G|--------------------------3------|--3------------------------------|
D|---------------------------------|---------------------------------|
A|---------------------------------|------------------4-------4------|
E|--0---------------0-------0------|--2---------------2-------2------|
    |   |   |   |   |   |   |   |     |   |   |   |   |   |   |   |  
    |               |                 |               |         
L   2   1       3   1       2         1               3       3
                                      1               1       1
                                      2
                                      1

[31]
E|----------0---2---3---5---3---2--|--0------------------------------|
B|---------------------------------|------3---2---3---5---3---2---0--|
G|---------------------------------|---------------------------------|
D|--0------------------------------|---------------------------------|
A|---------------------------------|---------------------------------|
E|--0---------------0-------0------|--0---------------0-------0------|
    |   |   |   |   |   |   |   |     |   |   |   |   |   |   |   |  
    |               |                 |               |         
L               1   2   4   2   1         2   1   2   4   2   1 


[33]II.............................         
E|---------------------------------|---------------------------------|
B|------------------2--------------|---------------------------------|
G|--3------------------------------|---------------------------------|
D|---------------------------------|----------2---4---5---7---5---4--|
A|------------------4-------4------|---------------------------------|
E|--2---------------2-------2------|--0---------------0-------0------|
    |   |   |   |   |   |   |   |     |   |   |   |   |   |   |   |  
    |               |                 |               |         
L   2               1       3                 1   1   2   4   2   1
    1               3       1
                    1

[35]
E|---------------------------------|---------------------------------|
B|---------------------------------|---------------------------------|
G|---------------------------------|---------------------------------|
D|--2---------------2--------------|--4------------------------------|
A|------5---4---5-------5---4---2--|---------------------------------|
E|--0---------------0-------0------|--2---------------2-------2------|
    |   |   |   |   |   |   |   |     |   |   |   |   |   |   |   |  
    |               |                 |               |         
L   1   4   3   4   1   4   3   1     3               1       1
                                      1

[37]                                                  II............. 
E|--0---0---2---2---3---3---5---5--|----------0---0---2---2---3---3--|
B|---------------------------------|--3---3--------------------------|
G|---------------------------------|---------------------------------|
D|--2-------0----------------------|--0-----------------------2------|
A|------------------4-------0------|----------4-------2--------------|
E|---------------------------------|---------------------------------|
    |   |   |   |   |   |   |   |     |   |   |   |   |   |   |   |  
    |               |                 |               |         
L   1       2   2   2   2   4   4     2   2   3       1   1   2   2
                                                      1       1

R   a   i   a   i   a   i   a   i
    p       p       p       p

     poco rallentando                Key: E major  a tempo 
[39]                        II....    II............................
E|------------------0---0---2---2-||--------------------------------|
B|--2---2---3---3-----------------||--4=============================|
G|--------------------------3-----||--------------------------------|
D|--------------------------------||--4---------------4-------4-----|
A|--1-------2---------------------||--2---------------2-------2-----|
E|------------------0-------2-----||--------------------------------|
    |   |   |   |   |   |   |   |     |   |   |   |   |   |   |   |  
    |               |                 |               |         
L   3   3   4   4           1   1     4               3       3
    1       2               2         3               1       1
                            1         1


[41].................................................................
E|---------------------------------||---------2-------2-------2------|
B|================================-||-------------4-------4-------4--|
G|---------------------------------||*-------------------------------|
D|--4---------------4-------4------||*4------------------------------|
A|--2---------------2-------2------||-2---------------2-------2------|
E|---------------------------------||--------------------------------|
    |   |   |   |   |   |   |   |     |   |   |   |   |   |   |   |  
    |               |                 |               |         
L   3               3       3         3       1   4   1   4   1   4 
    1               1       1         1               1       1

R                                             a   m   a   m   a   m

[43]
E|--0---------------0--------------|----------0-------0-------0------|
B|------2-------2------------------|--------------2-------2-------2--|
G|---------------------------------|---------------------------------|
D|----------4---------------4------|--4------------------------------|
A|--2---------------2-------2------|--2---------------2-------2------|
E|---------------------------------|---------------------------------|
    |   |   |   |   |   |   |   |     |   |   |   |   |   |   |   |  
    |               |                 |               |         
L   1   2   4   2   1       4         4           2   1   2   1   2
                            1         1
R                                             a   m   a   m   a   m

[45]II...........................    VII............................  
E|--------------------------------||----------------------7---11/-16-|
B|--4---------------4-------------||------------------7--------------|
G|------4-------4----------------*||--------------8------------------|
D|----------4---------------4----*||----------9----------------------|
A|--2---------------2-------2-----||------9--------------------------|
E|--------------------------------||--7------------------------------|
    |   |   |   |   |   |   |   |     |   |   |   |   |   |   |   |  
    |               |                 |               |         
L   4   3   2   3   4       2         1   3   4   2   1   1   4   4
    1               1       1
R   

     / 3 \           / 3 \             / 3 \           / 3 \
[47]                                                  IX.............   
E|--14h16p14--------11h12p11-------|--12h14p12-----------------------|
B|--------------------------11-----|------------------11h12p11-------|
G|----------13---------------------|----------13--------------9------|
D|---------------------------------|------------------9--------------|
A|---------------------------------|---------------------------------|
E|---------------------------------|---------------------------------|
    |   |   |   |   |   |   |   |     |   |   |   |   |   |   |   |  
    |               |                 |               |         
L   2  4  2 1       2  3  2 1         2  4  2 1       3  4  3 1
                                                      1

[49]VII............................  VII.............................
E|--7-----------------------------||------------------7--------------|
B|--------------------------------||--------------7-------7----------|
G|--8----------------------------*||----------8-------------------8--|
D|-------------------------------*||---------------------------------|
A|------------------9-------9-----||--9-----------------------9------|
E|--7---------------7-------7-----||--7---------------7--------------|
    |   |   |   |   |   |   |   |     |   |   |   |   |   |   |   |  
    |               |                 |               |         
L   1               3       3         3       2   1   1   1   3   2     
    2               1       1         2       2 4 2   2       3
    1                                 1               1   1             

R                                             i   m   a   m   p   i    
  
             / 3 \
[51]............................... VII..............................
E|---------------------------------|------------------7--------------|
B|---------------------------------|--------------7-------7----------|
G|--9-------9h11p9--8--------------|----------8-------------------8--|
D|---------------------------------|---------------------------------|
A|--10------10------9-------9------|--9-----------------------9------|
E|--7-----------------------7------|--7---------------7--------------|
    |   |   |   |   |   |   |   |     |   |   |   |   |   |   |   |  
    |               |                 |               |         
L   2       2 4 2   2       3         3       2   1   1   1   3   2     
    3       3       3       1         1               1   1             
    1
R                                             i   m   a   m   p   i  
                                                      p


             / 3 \                            / 3 \
[53].................................................................
E|---------------------------------|---------------------------------|
B|---------------------------------|--8-------8-10-8--7--------------|
G|--9-------9h11p9--8--------------|--9-------9-------8--------------|
D|---------------------------------|---------------------------------|
A|--10------10------9-------9------|--------------------------9------|
E|--7-----------------------7------|--7------------------------------|
    |   |   |   |   |   |   |   |     |   |   |   |   |   |   |   |  
    |               |                 |               |         
L   2       2 4 2   2       3         2       2 4 2   1       3         
    3       3       3       1         3       3       2
    1                                 1
         
                              
 
             / 3 \                             / 3 \
[55].................................................................
E|---------------------------------|---------------------------------|
B|--8-------8-10-8--7--------------|--8-------8-10-8--7--------------|
G|--9-------9-------8--------------|--9-------9-------8--------------|
D|---------------------------------|---------------------------------|
A|--------------------------9------|--------------------------9------|
E|--7------------------------------|--7------------------------------|
    |   |   |   |   |   |   |   |     |   |   |   |   |   |   |   |  
    |               |                 |               |         
L   2       2 4 2   1       3         2       2 4 2   1       3
    3       3       2                 3       3       2
    1                                 1
                                     
[57].................................................................
E|---------------------------------|---------------------------------|
B|---------------------------------|---------------------------------|
G|---------------------------------|---------------------------------|
D|---------------------------------|--7------------------------------|
A|------------------9-------9------|------------------9-------9------|
E|--7------------------------------|--7------------------------------|
    |   |   |   |   |   |   |   |     |   |   |   |   |   |   |   |  
    |               |                 |               |         
L   1               3       3         1               3       3
                                      1

    poco rit.                               D.S return to * then Coda 
[59]..................................................   
E|---------------------------------|---------------------------------|
B|---------------------------------|---------------------------------|
G|---------------------------------|---------------------------------|
D|--7------------------------------|--7===============---------------|
A|------------------9-------9------|---------------------------------|
E|--7------------------------------|--7===============---------------|
    |   |   |   |   |   |   |   |     |   |   |   |   |   |   |   |  
    |               |                 |               |         
L   1               3       3         1
    1                                 1


[61]CODA                              V..............................
E|------------------0-------0------|--5==============================|
B|------------------8-------8------|--5==============================|
G|---------------------------------|--5==============================|
D|--10--------------10------10-----|--7==============================|
A|--0------------------------------|---------------------------------|
E|---------------------------------|---------------------------------|
    |   |   |   |   |   |   |   |     |   |   |   |   |   |   |   |  
    |               |                 |               |         
L   3               1       1         1
                    3       3         1
                                      1
                                      3

[63]........                          VII ^
E|==========--------0-------0------|--7===|=========================-|
B|==========--------7-------7------|--7===|=========================-|
G|==========-----------------------|--8===|=========================-|
D|==========--------8-------8------|--9===|=========================-|
A|------------------9-------9------|--9===|=========================-|
E|---------------------------------|--7===|=========================-|
    |   |   |   |   |   |   |   |     |   |   |   |   |   |   |   |    
    |               |                 |               |    
L                   1       1         1
                    2       2         1
                    3       3         2
                                      4
                                      3
                                      1


                 



======
Legend
======
Left                       Right                   __________
p = pull off               p = pulgar = thumb    |1.         = Ending 1
h = hammer on              i = indice = index     
/ = slide                  m = medio = middle     
= = suspend/hold Note      a = anular = ring      
V = Barre at fret 5        

Ligero = Lightly, in the weight sense
Poco Rallentando = play slower gradually   
Poco rit. = play slower gradually
D.S = dal segno, return the symbol (*) 
a tempo = resuming the initial tempo
                           

LL
Tap to rate this tab
 
# A B C D E F G H I J K L M N O P Q R S T U V W X Y Z