Song name
# A B C D E F G H I J K L M N O P Q R S T U V W X Y Z

Francisco Tarrega - Lagrima tab

     Lagrima - Francisco Tárrega - Tabs
 ___________________________________________
| This fingerpicked piece of heaven was the |
| first song I learned on the guitar, so I  |
| would call this songs level novice. Anyone|
| can learn it, doesn't matter how long     | 
| long you've been playing, but still, it is|
| worth learning because it is SO beautiful,|
| not like most of the other beginner songs |
| I tried to learn at that point.           |
|                                           |
| A thing that helps me remembering the     |
| structure of the song is to break it down.|
| I've done this for you at this song, so   |
| here it is:                               |
|                                           | 
|                 Structure:                |
|               1. Part 1                   |
|               2. Part 1                   |
|               3. Part 2                   |
|               4. Part 2                   |
|               5. Part 1                   |
|               6. Part 1                   |
|                                           | 
| As you people can see, the structure of   |
| Lagrima is quite simple.                  |
|                                           |
| In this tab I've only used one of them    |
| famous guitar symbols and this is the     |
| meaning of it:                            |
|                                           |
| / - Slide upwards (from lower to higher ) |
|                   (fret.                ) |
| If anyone notice any mistakes in the tab, |
| please notify me at zing.moment@gmail.com.|
|                                           |  
| Enjoy! :)                                 |
 ___________________________________________

Part 1:

E||--4-----5-----7-----|--2-----------------|
B||-----0-----0-----0--|-----0-----0-----0--|
G||--------------------|--------2-----------|
D||--2-----4-----6-----|--1-----------------|
A||--------------------|--------------2-----|
E||--------------------|--------------------|

E||--4-----5-----7-----|--2-----------------|
B||-----0-----0-----0--|-----0-----0-----0--|
G||--------------------|--------2-----------|
D||--2-----4-----6-----|--1-----------------|
A||--------------------|--------------2-----|
E||--------------------|--------------------|

E||--12-----11-----9----|-----0-----------0-|
B||------------------7--|-----------10--9---|
G||------9------9-------|-------11----------|
D||--11-----9------7----|--11---------------|
A||---------------------|---------------9---|
E||---------------------|-------------------|

E||----2-------0---|
B||--2------4--1---|
G||--3------2------|
D||------------2---|
A||------2---------|
E||---------------0|

Repeat part 1:

E||--4-----5-----7-----|--2-----------------|
B||-----0-----0-----0--|-----0-----0-----0--|
G||--------------------|--------2-----------|
D||--2-----4-----6-----|--1-----------------|
A||--------------------|--------------2-----|
E||--------------------|--------------------|

E||--4-----5-----7-----|--2-----------------|
B||-----0-----0-----0--|-----0-----0-----0--|
G||--------------------|--------2-----------|
D||--2-----4-----6-----|--1-----------------|
A||--------------------|--------------2-----|
E||--------------------|--------------------|

E||--12-----11-----9----|-----0-----------0-|
B||------------------7--|-----------10--9---|
G||------9------9-------|-------11----------|
D||--11-----9------7----|--11---------------|
A||---------------------|---------------9---|
E||---------------------|-------------------|

E||----2-------0---|
B||--2------4--1---|
G||--3------2------|
D||------------2---|
A||------2---------|
E||---------------0|

Part 2:

E||--3/8-7-0---3-0----|-------------------|
B||----------4--------|-------------------|
G||-------------------|---5--4--2--0--2---|
D||-------------------|---7--5--4--2--4---|
A||-------------------|-------------------|
E||--0-------2---0----|-------------------|

E||----12---8---------|----------------2--|
B||--0-----------10---|--7-----------0----|
G||--0----------------|--8----------------|
D||-------7-----------|-----9--10--9------|
A||-----------9-------|-------------------|
E||--0----------------|--7----------------|

E||--3-----5-----7-----|--10-8-7----------|
B||-----0-----0-----0--|----------10-8-7--|
G||--------------------|------------------|
D||--2-----4-----5-----|------------------|
A||--------------------|--0---------------|
E||--------------------|------------------|

E||--0-----2-----------|--0---------------|
B||-----0----3--0------|------------------|
G||-----0----2-----2---|--0---------------|
D||----------------1---|--2---------------|
A||-------------2------|------------------|
E||--0-----0-----------|--------0---------|

Repeat part 2:

E||--3/8-7-0---3-0----|-------------------|
B||----------4--------|-------------------|
G||-------------------|---5--4--2--0--2---|
D||-------------------|---7--5--4--2--4---|
A||-------------------|-------------------|
E||--0-------2---0----|-------------------|

E||----12---8---------|----------------2--|
B||--0-----------10---|--7-----------0----|
G||--0----------------|--8----------------|
D||-------7-----------|-----9--10--9------|
A||-----------9-------|-------------------|
E||--0----------------|--7----------------|

E||--3-----5-----7-----|--10-8-7----------|
B||-----0-----0-----0--|----------10-8-7--|
G||--------------------|------------------|
D||--2-----4-----5-----|------------------|
A||--------------------|--0---------------|
E||--------------------|------------------|

E||--0-----2-----------|--0---------------|
B||-----0----3--0------|------------------|
G||-----0----2-----2---|--0---------------|
D||----------------1---|--2---------------|
A||-------------2------|------------------|
E||--0-----0-----------|--------0---------|

Then back to part 1:

E||--4-----5-----7-----|--2-----------------|
B||-----0-----0-----0--|-----0-----0-----0--|
G||--------------------|--------2-----------|
D||--2-----4-----6-----|--1-----------------|
A||--------------------|--------------2-----|
E||--------------------|--------------------|

E||--4-----5-----7-----|--2-----------------|
B||-----0-----0-----0--|-----0-----0-----0--|
G||--------------------|--------2-----------|
D||--2-----4-----6-----|--1-----------------|
A||--------------------|--------------2-----|
E||--------------------|--------------------|

E||--12-----11-----9----|-----0-----------0-|
B||------------------7--|-----------10--9---|
G||------9------9-------|-------11----------|
D||--11-----9------7----|--11---------------|
A||---------------------|---------------9---|
E||---------------------|-------------------|

E||----2-------0---|
B||--2------4--1---|
G||--3------2------|
D||------------2---|
A||------2---------|
E||---------------0|

And repeat part 1 one last time:

E||--4-----5-----7-----|--2-----------------|
B||-----0-----0-----0--|-----0-----0-----0--|
G||--------------------|--------2-----------|
D||--2-----4-----6-----|--1-----------------|
A||--------------------|--------------2-----|
E||--------------------|--------------------|

E||--4-----5-----7-----|--2-----------------|
B||-----0-----0-----0--|-----0-----0-----0--|
G||--------------------|--------2-----------|
D||--2-----4-----6-----|--1-----------------|
A||--------------------|--------------2-----|
E||--------------------|--------------------|

E||--12-----11-----9----|-----0-----------0-|
B||------------------7--|-----------10--9---|
G||------9------9-------|-------11----------|
D||--11-----9------7----|--11---------------|
A||---------------------|---------------9---|
E||---------------------|-------------------|

E||----2-------0---|
B||--2------4--1---|
G||--3------2------|
D||------------2---|
A||------2---------|
E||---------------0|

Tap to rate this tab
 
# A B C D E F G H I J K L M N O P Q R S T U V W X Y Z