Song name
# A B C D E F G H I J K L M N O P Q R S T U V W X Y Z

Franco De Vita - Tan Solo Tu tab

INTRO-
   e       C        D       G9
e|-3---0-------3----2------------5-|
B|---0---0-1-----------3------3----|
G|-----------2-------2---2--4------|
D|---------------------------------|
A|---------------------------------|
E|---------------------------------|

   e       C        D        G9      Sim7
e|-3---0-------3----2------------5-|--2--|
B|---0---0-1-----------3------3----|--3--|
G|-----------2-------2---2--4------|--2--|
D|---------------------------------|--4--|
A|---------------------------------|--2--|
E|---------------------------------|-----|

   e       C        D        G9
e|-3---0-------3----2------------5-|
B|---0---0-1-----------3------3----|
G|-----------2-------2---2--4------|
D|---------------------------------|
A|---------------------------------|
E|---------------------------------|
   Tu…       me das….

   e       C        D        G9      Sim7
e|-3---0-------3----2------------5-|--2--|
B|---0---0-1-----------3------3----|--3--|
G|-----------2-------2---2--4------|--2--|
D|---------------------------------|--4--|
A|---------------------------------|--2--|
E|---------------------------------|-----|
Tu     me das el aire que...        Respiro


   e       C        D        G9
e|-3---0-------3----2------------5-|
B|---0---0-1-----------3------3----|
G|-----------2-------2---2--4------|
D|---------------------------------|
A|---------------------------------|
E|---------------------------------|

   Tu...     seras lo q….

   e       C        D        G9       D
e|-3---0-------3----2------------5-|--2--|
B|---0---0-1-----------3------3----|--3--|
G|-----------2-------2---2--4------|--2--|
D|---------------------------------|--0--|
A|---------------------------------|-----|
E|---------------------------------|-----|
y tu vendras

                         D7
robándome la vida pa' fundirla con la tuya


Bm                               Bm7
Y que será de mi cuando en tus brazos yo descubra que
C     D       G                    C
Tú serás el cielo que jamás podré tocar
         Am          D      G
es imposible ya lo sé, abrázame...


          *Aqui volvemos a puntear*

   e       C        D        G9
e|-3---0-------3----2------------5-|
B|---0---0-1-----------3------3----|
G|-----------2-------2---2--4------|
D|---------------------------------|
A|---------------------------------|
E|---------------------------------|
   Tu        me das   un golpe………

   e       C        D        G9      Sim7
e|-3---0-------3----2------------5-|--2--|
B|---0---0-1-----------3------3----|--3--|
G|-----------2-------2---2--4------|--2--|
D|---------------------------------|--4--|
A|---------------------------------|--2--|
E|---------------------------------|-----|
y tu me das……….


            *Aquí ya comienza el rasgueo*



Em   Am         D                       Bm
Tú serás la historia más bonita la que nunca se te olvida
Em     Am          D                     D7
y tú vendrás entregando tu vida para hacerte con la mía
  Bm                            Bm7
y qué será de mi cuando en tus besos yo entendía que
C    D                G                     C
Tú serás (serás) el cielo que jamás podré tocar
        Am          D                 C     D
es imposible ya lo sé… que Tan sólo tú me das (me das)
     G                            C          Am         D          G
la vida que yo siempre quise para mi, es imposible ya lo sé, perdóname
       A           D                      D7                    Bm
Por pensar sólo en mi (por pensar sólo en mi, por pensar sólo en mi)
              A               D                 D7              Bm
Por no darte mas de lo que te di (por no darte mas de lo que te di)
          A         D                D7                     Bm
Por amarte simplemente, no me pidas hacer lo que no puedo hacer,
                   A            C    D                G
si tu quieres y puedes olvídame tú serás (serás) el cielo que jamás
        C            Am         D                  C      D
podré tocar, es imposible ya lo sé... Que tan sólo tú me das (me das)
    G                              C
la vida que yo siempre quise para mi  (la vida que yo siempre quise)
             Am         D                   C  D  G  Em
pero es imposible ya lo sé... Que tan sólo tú...
         Am        D           G    Em  Bm  C        G
Es imposible ya lo sé... perdóname    Uh     perdóname.
Tap to rate this tab
# A B C D E F G H I J K L M N O P Q R S T U V W X Y Z