Song name
# A B C D E F G H I J K L M N O P Q R S T U V W X Y Z

Franco - Castaway tab

CASTAWAY by Franco

INTRO:

e|--------------------------------|
B|--------------------------------|
G|--------------------------------|
D|-------5--------(5)-------(5)---|
A|---------6--------(6)-------(6)-| improvised na delay..hehe
E|-4-4-4-----(4)(4)----(4)(4)-----|

e|----------------------------------|
B|----------------------------------|
G|-------3-----(3)--------3-5-3-----|
D|---------5------(5)-----------5\--|
A|-3-3-3-----(3)------3-3-----------|
E|----------------------------------|

e|-----------------------------------|
B|-----------------------------------|
G|--------------------------------5~-|
D|-------5--------(5)-------(5)---5~-|
A|---------6--------(6)-------(6)-3~-|
E|-4-4-4-----(4)(4)----(4)(4)--------|

e|-----------     -----------------------------|
B|-----------     -----------------------------|
G|----------- 2x -------3----------3-5-3-------|
D|-------5---    ---------5--------------5\----|
A|---------6-    -3-3-3------3-3-3-------------|
E|-4-4-4-----    ------------------------------|

e|-----------     -----------------------------|
B|-----------     -----------------------------|
G|----------- 2x -------3----------3-5-3-------|
D|-------5---    ---------5--------------5\----|
A|---------6-    -3-3-3------3-3-3-------------|
E|-4-4-4-----    ------------------------------|


e|------------------|
B|------------------|
G|-6-6-6-6-6-6-6-6--| ........
D|-6-6-6-6-6-6-6-6--|
A|-4-4-4-4-4-4-4-4--|
E|------------------|


VERSE:

e|-----------------------------------------------|
B|-----------------------------------------------|
G|------------------------------3------3---------| 2x
D|-------5------5-----------------5------5-3-5\--|
A|---------6------6-4-6\--3-3-3------3-----------|
E|-4-4-4------4----------------------------------|

e|------------------|
B|------------------|
G|-6-6-6-6-6-6-6-6--| ........
D|-6-6-6-6-6-6-6-6--|
A|-4-4-4-4-4-4-4-4--|
E|------------------|


CHORUS:
C#     G#        Fm
 On my own, castaway
             Eb
 trapped and caught in the dream
C#        G#           Fm
 Darkened skies, tidal waves
        Eb
 but I am moving on


BRIDGE: chords ng chorus tapos (C#-G#-B-Bb) 2x

etc...


NITRAM
05-12-10
3:08PM
Tap to rate this tab
 
# A B C D E F G H I J K L M N O P Q R S T U V W X Y Z