Song name
# A B C D E F G H I J K L M N O P Q R S T U V W X Y Z

Franco - Castaway tab

CASTAWAY - FRANCO

tuning: drop C#
tabs by rhyle angeles

slide - (~)

intro: (clean)(delay)
eb|---------------------------------------------|
Bb|---------------------------------------------|
F#|---------------------------------------------|
Db|-------------------------------------11------|
Ab|---------11-7-------------14-11---14----14---| 
C#|-5~7-7-7-------7~11-11-11--------------------|

eb|------------------------|
Bb|------------------------|
G#|------------------------|
Db|-------------------11---|
Ab|----------11-7-----11---| 
C#|-5~7-7-7---------7~11---|

(distorted)
eb|--------------------------------------------------------------|
Bb|--------------------------------------------------------------|
G#|--------------------------------------------------------------| 2x
Db|----------------------------------------------------11--------|
Ab|----------11-7------11-7-------------14-11-------14----14-11--| 
C#|-5~7-7-7--------7-7---------11-11-11-------11-11--------------|

eb|------------|
Bb|------------|
G#|------------|
Db|--12(32x)---| 
Ab|--12(32x)---| 
C#|--12(32x)---|

(verse)(clean/delay)
eb|--------------------------------------------------------------|
Bb|--------------------------------------------------------------|
G#|--------------------------------------------------------------|
Db|--------------------------------------------------------------| 2x
Ab|----------11-7---11-7----------------14-11----14-11-9~11------| 
C#|--5~7-7-7------7------7-7---11-11-11-------11-----------------|

(distorted)
eb|------------|
Bb|------------|
G#|------------|
Db|--12(32x)---| 
Ab|--12(32x)---| 
C#|--12(32x)---|

(clean/delay)
eb|--------------------------------------------------------------|
Bb|--------------------------------------------------------------|
G#|--------------------------------------------------------------|
Db|--------------------------------------------------------------| 2x
Ab|----------11-7---11-7----------------14-11----14-11-9~11------| 
C#|--5~7-7-7------7------7-7---11-11-11-------11-----------------|

(distorted)
eb|------------|
Bb|------------|
G#|------------|
Db|--12(32x)---| 
Ab|--12(32x)---| 
C#|--12(32x)---|

(chorus)
eb|-------------------------------------------|
Bb|-------------------------------------------|
G#|-------------------------------------------| 2x
Db|--12-(16x)---7-(16x)---4-(16x)---2-(16x)---| 
Ab|--12-(16x)---7-(16x)---4-(16x)---2-(16x)---| 
C#|--12-(16x)---7-(16x)---4-(16x)---2-(16x)---|

(distorted)
eb|--------------------------------------------------------------|
Bb|--------------------------------------------------------------|
G#|--------------------------------------------------------------| 2x
Db|----------------------------------------------------11--------|
Ab|----------11-7------11-7-------------14-11-------14----14-11--| 
C#|-5~7-7-7--------7-7---------11-11-11-------11-11--------------|

(verse)(clean/delay)
eb|--------------------------------------------------------------|
Bb|--------------------------------------------------------------|
G#|--------------------------------------------------------------|
Db|--------------------------------------------------------------| 2x
Ab|----------11-7---11-7----------------14-11----14-11-9~11------| 
C#|--5~7-7-7------7------7-7---11-11-11-------11-----------------|

(distorted)
eb|------------|
Bb|------------|
G#|------------|
Db|--12(32x)---| 
Ab|--12(32x)---| 
C#|--12(32x)---|

(chorus)
eb|-------------------------------------------|
Bb|-------------------------------------------|
G#|-------------------------------------------| 2x
Db|--12-(16x)---7-(16x)---4-(16x)---2-(16x)---| 
Ab|--12-(16x)---7-(16x)---4-(16x)---2-(16x)---| 
C#|--12-(16x)---7-(16x)---4-(16x)---2-(16x)---|

not yet finished :)
Tap to rate this tab
# A B C D E F G H I J K L M N O P Q R S T U V W X Y Z