Song name
# A B C D E F G H I J K L M N O P Q R S T U V W X Y Z

Franco - Memory Kill tab

sensya n kung may mapapansin kaung mali^^
Drop Db tuning...

(intro)
e|--5(7x)---9(9x)---5(7x)---9(9x)---12(7x)---9(9x)---12(7x)---9(4x)---10(3x)|
G|--------------------------------------------------------------------------|
D|--------------------------------------------------------------------------|
A|--------------------------------------------------------------------------|
D|--------------------------------------------------------------------------|

guitar I
e|---x---x---|
B|---x---x---|
G|---x---x---|Timing na lng...
D|---4---0---|
A|---4---0---|
D|---4---0---|

guitar II
(riff I)
e|---x-x-------x-x-------x-x-------x-----|
B|---x-x-------x-x-------x-x-------x-----|
G|---x-x--2-4--x-x--4-2--x-x--2-4--x--2-4|
D|---4-4-------4-4-------4-4-------4-----|(2x)
A|---4-4-------4-4-------4-4-------4-----|
D|---4-4-------4-4-------4-4-------4-----|
(riff II)
e|---x-x-------x-x-------x-x-------x-----|
B|---x-x-------x-x-------x-x-------x-----|
G|---x-x-------x-x-------x-x-------x-----|
D|---0-0-------0-0-------0-0-------0-----|(2x)
A|---0-0--2-4--0-0--4-2--0-0--2-4--0--2-4|
D|---0-0-------0-0-------0-0-------0-----|
(riff III)
e|---x-x-------x-x-------x-x-------x-----|
B|---x-x-------x-x--2-1--x-x-------x-----|
G|---x-x--2-4--x-x-------x-x--2-4--x--2-4|
D|---4-4-------4-4-------4-4-------4-----|(2x)
A|---4-4-------4-4-------4-4-------4-----|
D|---4-4-------4-4-------4-4-------4-----|
repeat riff 2
(verse)
e|--
B|--
G|--
D|--
A|--
E|--

di pa po tapos...nxt time ulit...^^

Tap to rate this tab
 
# A B C D E F G H I J K L M N O P Q R S T U V W X Y Z