Franco - Memory Kill tab

Band: Franco
Song: Memory Kill
Tuning: Db-Ab-Db-Gb-Bb-eb
Original Cover by: bobcram (http://www.youtube.com/watch?v=_w7Dshddsb8)
Translated to tab: Pulse (Me)

p - pull-off
b - bend
s - slide (/ up; \ down)

(I can't quite produce the sound of the first part of the intro, so i'll leave 
that part to you..)
(Here's the second part of the intro)

Intro:
eb|--------------------------------------|
Bb|--------------------------------------|
Gb|--------------------------------------| 2x
Db|--------2-4-----4-2-----2-4---2-4~----|
Ab|--------------------------------------|
Db|----4-4-----4-4-----4-4-----4---------|

eb|--------------------------------------|
Bb|--------------------------------------|
Gb|--------------------------------------| 2x
Db|--------------------------------------|
Ab|--------2-4-----5-4-----2-4---2-4~----|
Db|----0-0-----0-0-----0-0-----0---------|

eb|--------------------------------------|
Bb|--------------------------------------|
Gb|----------------2-1-------------------| 2x
Db|--------2-4-------------2-4---2-4~----|
Ab|--------------------------------------|
Db|----4-4-----4-4-----4-4-----4---------|

eb|--------------------------------------|
Bb|--------------------------------------|
Gb|--------------------------------------| 2x
Db|--------------------------------------|
Ab|--------2-4-----5-4-----2-4---2-4~----|
Db|----0-0-----0-0-----0-0-----0---------|

Verse1: (Strums; Fill in those extra notes if you want)

eb|--x------|--x-----|
Bb|--x(10)--|--x-----|
Gb|--x------|--4(5)--| 2x
Db|--11-----|--5-----|
Ab|--9------|--3-----|
Db|--x------|--x-----|

(Adlib before Verse2)
eb|-----------------------------|
Bb|-----------------------------|
Gb|-----------------------------| 2x
Db|-----------------------------|
Ab|------7~----7------7-----7~--|
Db|--4-4---4-4---4p-4---4-4-----|

eb|----------------------------------|
Bb|----------------------------------|
Gb|----------------------------------| 2x
Db|----------------------------------|
Ab|------4-4-----4-------4-0-2-5-4~--|
Db|--0-0-----0-0---0---0-------------|

Verse2: (Strums; Fill in those extra notes if you want)

eb|--x------|--x-----|
Bb|--x(10)--|--x-----|
Gb|--x------|--4(5)--| 2x
Db|--11-----|--5-----|
Ab|--9------|--3-----|
Db|--x------|--x-----|

Chorus: (Strums)
			|-1strum each-|	        |~Kill that memory~|
eb|--x--|--x--|--x--|--x--|--x-x-x-x-x--|     |--x--|--x-x-x-x-x--|
Bb|--x--|--x--|--x--|--x--|--x-x-x-x-x--|     |--x--|--x-x-x-x-x--|
Gb|--9--|--4--|--6--|--6--|--7-6-4-6-6--| 2x  |--6--|--7-6-4-6-6--|
Db|--7--|--2--|--4--|--0--|--5-4-2-4-4--|     |--0--|--5-4-2-4-4--|
Ab|--7--|--2--|--4--|--0--|--5-4-2-4-4--|     |--0--|--5-4-2-4-4--|
Db|--7--|--2--|--4--|--0--|--x-x-x-x-x--|     |--0--|--x-x-x-x-x--|

eb|-----------------------------------------------------
Bb|-----------------------------------------------------
Gb|-----------------------------------------------------
Db|-----------------------------------------------------
Ab|------5--------------5---------5--------------5s7s4--
Db|--4-4---4-5-4---4--4---4-5bp-4---4-5-4---4--4--------

|---------------------------------------------------------|
|---------------------------------------------------------|
|---------------------------------------------------------| 2x
|---------------------------------------------------------|
|------5--------------5---------5--------------5\-----5\--|
|--4-4---4-5-4---4--4---4-5bp-4---4-5-4---4--4----4-4-----|

Refrain:

(Strumming pattern similar to this;just go with the rythm)
eb|--xxxxxxxxxxxxxxx--|
Bb|--xxxxxxxxxxxxxxx--|
Gb|--xxxxxxxxxxxxxxx--| 2x
Db|--444x44x4x44x444--|
Ab|--444x44x4x44x444--|
Db|--444x44x4x44x444--|

eb|--xxxxxxxxxx-x------|
Bb|--xxxxxxxxxx-x------|
Gb|--xxxxxxxxxx-14s13--| 2x
Db|--000x00x0x0-14s13--|
Ab|--000x00x0x0-12s11--|
Db|--000x00x0x0-x------|


Chorus: (Strums)
				 |-1strum each-|	        |~Kill that memory~|
eb|--x--|--x--|--x--|--x--|--x-x-x-x-x--|     |--x--|--x-x-x-x-x--|
Bb|--x--|--x--|--x--|--x--|--x-x-x-x-x--|     |--x--|--x-x-x-x-x--|
Gb|--9--|--4--|--6--|--6--|--7-6-4-6-6--| 2x  |--6--|--7-6-4-6-6--|
Db|--7--|--2--|--4--|--0--|--5-4-2-4-4--|     |--0--|--5-4-2-4-4--|
Ab|--7--|--2--|--4--|--0--|--5-4-2-4-4--|     |--0--|--5-4-2-4-4--|
Db|--7--|--2--|--4--|--0--|--x-x-x-x-x--|     |--0--|--x-x-x-x-x--|

|~Kill that memory~|
eb|--x--|--x--|
Bb|--x--|--x--|
Gb|--6--|--6--| 4x
Db|--4--|--0--|
Ab|--4--|--0--|
Db|--x--|--0--|

eb|-----------------------------------------------------
Bb|-----------------------------------------------------
Gb|-----------------------------------------------------
Db|-----------------------------------------------------
Ab|------5--------------5---------5--------------5s7s4--
Db|--4-4---4-5-4---4--4---4-5bp-4---4-5-4---4--4--------

|---------------------------------------------------------|
|---------------------------------------------------------|
|---------------------------------------------------------| 2x
|---------------------------------------------------------|
|------5--------------5---------5--------------5\-----5\--|
|--4-4---4-5-4---4--4---4-5bp-4---4-5-4---4--4----4-4-----|
Tap to rate this tab
 
# A B C D E F G H I J K L M N O P Q R S T U V W X Y Z