Franco - Castaway tab

Intro
Guitar 1

e---------------------------------------------------------------------------------|
B --------------------------------------------------------------------------------|
G---------------------------------------3----------------(3)------3h5p3-----------|
D-------5--------------(5)-----------------5-----------------(5)-----------5------|
A----------6---------------(6)---333---------(3)(3)(3)----------------------------|
D--666-------(6)(6)(6)------------------------------------------------------------|

e-------------------------------------|
B-------------------------------------|
G---------------------------------3~--|
D-------5--------------(5)--------5~--|
A---------6----------------(6)----3~--|
D--666------(6)(6)(6)-----------------|

Guitar 1

e------------------------------------------------------------|
B -----------------------------------------------------------|
G---------------------------------3---------3h5p3------------|
D--------5--------5-----------------5----------------5-------|    X2
A----------6---------6------333--------33--------------------|
D--666---------66--------------------------------------------|

e--------------------|
B--------------------|
G----555555555-------|
D----666666666-------|
A----444444444-------|
D--------------------|

Guitar 2

e---------------------------------------------------------------|
B---------------------------------------------------------------|
G----------------555555555----------------55555555---66666666---|
D--66666666666---555555555--- 666666666---55555555---66666666---|
A--66666666666---333333333 ---666666666---33333333---44444444---|
D--66666666666----------------666666666-------------------------|

Verse
Guitar 1 (listen to the song carefully for this)

e--------------------------------------------------------------|
B--------------------------------------------------------------|
G--------------------------------3----------3------------------|
D-------5------5---------5----------5----------5----3h5--------|
A---------6------6----6------333-------33----------------------|
D--666------66-----6-------------------------------------------|

e--------------------------------------------------------------|
B--------------------------------------------------------------|
G--------------------------------3----------33-55-33-----------|
D-------5------5---------5----------5-----------------55-------|
A---------6------6----6------333-------3-----------------------|
D--666------66-----6-------------------------------------------|

then

Guitar 1

e--------------------|
B--------------------|
G----555555555-------|
D----666666666-------|
A----444444444-------|
D--------------------|

Guitar 2

e--------------------|
B--------------------|
G----666666666-------|
D----666666666-------|
A----444444444-------|
D--------------------|

Chorus

Guitar 1

e------------------------------------|
B---------8~-------8~---------8~-----|
G------8~-------8~---------8~--------|
D---6~-------5~----------------------|   X2
A----------------------8~------------|
D------------------------------------|

Guitar 2

e---------------------------------------------|
B---------------------------------------------|
G----555555555--------------------------------|
D----666666666---6666666---3333333---1111111--|    X2
A----444444444---6666666---3333333---1111111--|
D----------------6666666---3333333---1111111--|

Guitar 1

e------------------------------------------------------------|
B -----------------------------------------------------------|
G---------------------------------3---------3h5p3------------|
D--------5--------5-----------------5----------------5-------|    X2
A----------6---------6------333--------33--------------------|
D--666---------66--------------------------------------------|


Guitar 2

e----------------------------------------------------|
B----------------------------------------------------|
G----------------555555555----------------55555555---|
D--66666666666---555555555--- 666666666---55555555---|
A--66666666666---333333333 ---666666666---33333333---|
D--66666666666----------------666666666--------------|

Repeat Verse
Chorus

Bridge

Guitar 1

e-----------------------------------------------------------------|
B-----------------------------------------------------------------|
G--55555555555--------------12121212-13131313-12121212-13131313---|
D--66666666666---6666666-----x-x-x-x--x-x-x-x--x-x-x-x--x-x-x-x---|
A--44444444444---6666666----10101010-11111111-10101010-11111111---|
D----------------6666666------------------------------------------|

X2

Guitar 2

e--------------------------------------|
B--------------------------------------|
G----555555555-------------------------|
D----666666666--6666666------11111111--|    X2
A----444444444--6666666------11111111--|
D---------------6666666------11111111--|

Guitar 1

e--------------------------------------------------------------|
B------------88-------------88-----------88------------88------|
G-----66--88----88---66--88---88--55--88----88--55--88-----88--|
D--------------------------------------------------------------|
A--------------------------------------------------------------|
D--------------------------------------------------------------|

e-----------------------------------------------------|
B------------77---------------77-------------77-------|
G--------88-------88------88------88------88----88----|
D----99--------------99---------------88-----------99-|   X2
A-----------------------------------------------------|
D-----------------------------------------------------|

Guitar 2

e-------------------------------------------|
B-------------------------------------------|
G----555555555------------------------------|
D----666666666--6666666---4444444---333333--|
A----444444444--6666666---4444444---333333--|
D---------------6666666---4444444---333333--|

e-----------------------------------------|
B-----------------------------------------|
G----555555555----------------------------|
D----666666666--6666666---44444444444444--|
A----444444444--6666666---44444444444444--|
D---------------6666666---44444444444444--|

Chorus

Guitar 1

e------------------------------------|
B---------8~-------8~---------8~-----|
G------8~-------8~---------8~--------|
D---6~-------5~----------------------|   X2
A----------------------8~------------|
D------------------------------------|

Guitar 2

e---------------------------------------------|
B---------------------------------------------|
G----555555555--------------------------------|
D----666666666---6666666---3333333---1111111--|    X2
A----444444444---6666666---3333333---1111111--|
D----------------6666666---3333333---1111111--|

Outro

Guitar 2

e------------------------------|
B------------------------------|
G----555555555-----------------|
D----666666666--6666666--------|    X3
A----444444444--6666666--------|
D---------------6666666--------|

e----------|
B----------|
G----------|
D----4~----|
A----4~----|
D----4~----|
Tap to rate this tab
 
# A B C D E F G H I J K L M N O P Q R S T U V W X Y Z