Franco - Song For The Suspect Acoustic tab

Song for the Suspect (Acoustic)
by Franco Reyes

Tuning: Drop D Half Step Down

FOLLOW THE SONG, JAM NICE AND SLOW.

Intro/Verse

Eb|--2------2------2-------------2------2------2-------|
Bb|--2------2h3----3p2-----------2------2h3----3p2-----|
Gb|--2------4------4-------------2------4------4-------|
Db|--4------4------4-------------4------4------4-------|
Ab|--4------0------0-------------4------0------0-------|
Db|--0------0------0-------------0------0------0-------|

One love
Jah love
Come and feel the vibe
He's given us the herb
rising from under the earth
It's so we can unite
so give me and pass me the light yeaah
throw away all your hate
come come with me

Eb|--2------2------2-------------2------2------2-------|
Bb|--2------2h3----3p2-----------2------2h3----3p2-----|
Gb|--2------4------4-------------2------4------4-------|
Db|--4------4------4-------------4------4------4-------|
Ab|--4------0------0-------------4------0------0-------|
Db|--0------0------0-------------0------0------0-------|

Well I see jah coming
so come gather round my children
and I and I me try
to never make them fire die
So don't break, decipher
be part of the unbreaking circle my friend
Throw away all your hay
come jam with me


CHORUS

Another new day...  to ...
Eb|----0----|-------x-x--x--x--x--x---x-x--x--x--x--x---x--x-----|
Bb|----3----|-------x-x--x--x--x--x---x-x--x--x--x--x---x--x-----|
Gb|----2----|-------7/9--9--9--9--9---9/11-11-11-11-11--11\9-----|
Db|----0----|-------x-x--x--x--x--x---x-x--x--x--x--x---x--x-----|
Ab|----0----|-------5/7--7--7--7--7---7/9--9--9--9--9---9-\7-----|
Db|----0----|-------0-0--0--0--0--0---0-0--0--0--0--0---0--0-----|


  ... understand..as much as we can..as much as we can understand our love...
Eb|---x--------x-----------------x------x----------x---------x------------|
Bb|---x--------x-----------------x------x----------x---------x------------|
Gb|---x--------x-----------------9------9----------x---------x------------|
Db|---7--------9-----------------x------11---------12--------11-----------|
Ab|---4--------7-----------------7------7----------9---------9------------|
Db|---4-(X16)--7-(X16)-----------0-(X6)-0-(X10)----9-(X6)----9-(X10)------|


....We're high everywhere..We float in the air..We smoke and we float...
Eb|---x-------------x---------x-----------x-----------x---------x------|
Bb|---x-------------x---------x-----------x-----------x---------x------|
Gb|---11------------x---------x-----------9-----------9---------x------|
Db|---11------------7---------6-----------x-----------11--------12-----|
Ab|---9-------------4---------4-----------7-----------7---------9------|
Db|---0-(X16)-------4-(X6)----4-(X16)-----0-(X6)------0-(X10)---9(X6)--|

...in the air of LOVE..
Eb|-------x--------2----2------|
Bb|-------x--------2----2h3----|
Gb|-------x--------2----4------|
Db|-------11-------4----4------|
Ab|-------9--------4----0------|
Db|-------9(X10)---0----0------|


We're refillin' to jah brim
Well we'll see wa-wa-wa-wa-well yeah
We're refilling love within
Jah will see wa-wa-wa-wa-well yeah
Eb|--2------2------2-------------2------2------2-------|
Bb|--2------2h3----3p2-----------2------2h3----3p2-----|
Gb|--2------4------4-------------2------4------4-------|
Db|--4------4------4-------------4------4------4-------|
Ab|--4------0------0-------------4------0------0-------|
Db|--0------0------0-------------0------0------0-------|

!!(REPEAT CHORUS)!!

    Divided and we fall apart I'll seal the hurt..We undivided...
Eb|--x-------------x---------------x-----------------x---------|
Bb|--x-------------x---------------x-----------------x---------|
Gb|--7-------------x---------------x-----------------x---------|
Db|--x-------------11--------------14----------------14--------|
Ab|--5-------------9---------------12----------------11--------|
Db|--0-(X16)-------9-(X16)---------12-(X16)----------11-(X16)--|

 .....Gather all we smoke them spliff againnn...
Eb|--x-------x--------x----------x---------x---------|
Bb|--x-------x--------x----------x---------x---------|
Gb|--x-------x--------6----------7---------x---------|
Db|--11------9--------x----------x---------11--------|
Ab|--9-------7--------4----------5---------9---------|
Db|--9-(X16)-7-(X8)---0-(X8)-----0-(X16)---9-(X16)---|

.....We free again...  in   PEACE  again...
Eb|--x--------x--------x-------x-----0~--------------|
Bb|--x--------x--------x-------x-----3~--------------|
Gb|--7--------x--------7-------7\6---2~--------------|
Db|--x--------11-------x-------x-----0~--------------|
Ab|--5--------9--------5-------5-----0~--------------|
Db|--0-(X16)--9-(X16)--0-(X14)-0-----0~--------------|


Bob Marley:
"I know and the world know that herb was created for the use of man. herb was here 
before man so that means if man control finally the laws of who created herb cause, herb is 
not an illusion. it is creation. it was created by a divine man for divine purposes." RASTAFAR-I!
Eb|--2------2------2-------------2------2------2-------|
Bb|--2------2h3----3p2-----------2------2h3----3p2-----|
Gb|--2------4------4-------------2------4------4-------|
Db|--4------4------4-------------4------4------4-------|
Ab|--4------0------0-------------4------0------0-------|
Db|--0------0------0-------------0------0------0-------|

!!(REPEAT CHORUS 2x)!!

(END WITH..)
...in the air of LOVE..
Eb|-------x--------2----2------|
Bb|-------x--------2----2h3----|
Gb|-------x--------2----4------|
Db|-------11-------4----4------|  repeat last two chords
Ab|-------9--------4----0------|
Db|-------9(X10)---0----0------|


SUSPITSADOS UNITE! ONE LOVE!

tabbed by Bryan Delmendo
For questions: bryandelmendo@gmail.com
Tap to rate this tab
 
# A B C D E F G H I J K L M N O P Q R S T U V W X Y Z