Franco - Seasons tab

Tuning Drop D(kakatamad mag C# eh)


Intro-
GtrI
|------------------------------------------------------------5~-----|
|------------------------------------------------------------6~-----|
|------------------------------------------------------------7~-----|
|-----------------------------------------------3x-----------5~-----|
|----------------3--3-3--5--5-5------------------------------5~-----|
|-1--1-1--3--3-3----------------5~-------5p3p0---------------5~-----|
GtrII
|--------------------------------------5---------------------5~-----|
|----------------6-----------------------6~------------------6~-----|
|-------------7-----7~---------------7-----------------------7~-----|
|----------5-----------------------5-------------------------5~-----|
|------------------------------------------------------------5~-----|
|------------------------------------------------------------5~-----|

then
|----------------------------------------------------|
|----------------------------------------------------|
|-----------------------------------------888--------|
|-----3-3--5-5--6-6--8-8---3-3--5-5--6-6-------------|
|-xx--3-3--5-5--6-6--8-8---3-3--5-5--6-6--666--------|
|-xx--3-3--5-5--6-6--8-8---3-3--5-5--6-6-------------|

|----------------------------------------------------|
|----------------------------------------------------|
|-----------------------------------------888--------|
|---3-3--5-5--6-6--8-6-5--3-3-3--5-5--6-6------------|
|---3-3--5-5--6-6--8-6-5--3-3-3--5-5--6-6-666--------|
|---3-3--5-5--6-6--8-6-5--3-3-3--5-5--6-6------------|

Verse
|-------------------------------------------------------------------|
|-------------------------------------------------------------------|
|-------------------------------------------------------------------|
|-6~------------------------------1-1-1-1-1-1-1-1-1-1-1-1-1-1-1-1---|
|-6~-6666666666666-66666666666666-1-1-1-1-1-1-1-1-1-1-1-1-1-1-1-1---|
|-6--6666666666666-66666666666666-1-1-1-1-1-1-1-1-1-1-1-1-1-1-1-1---|
     
|-------------------------------------------------------------------|
|-------------------------------------------------------------------|
|-------------------------------------------------------------------|
|-6------------------------------------------------3----------------|
|-6--6-6-6-6-6-6-6-6-6-6-6-6-6-6--3--3-3-3-3-3-3-3-3----------------|
|-6--6-6-6-6-6-6-6-6-6-6-6-6-6-6--3--3-3-3-3-3-3-3-3----------------|

Chorus-
|-------------------------------------------------------------------|
|-------------------------------------------------------------------|
|-------------------------------------------------------------------|
|-1-1-1-1-1-1-1-1--5-5-5-5-5-5-5-5-1-1-1-1-1-1-1-1--5-5-5-5-5-5-5-5-|
|-1-1-1-1-1-1-1-1--5-5-5-5-5-5-5-5-1-1-1-1-1-1-1-1--5-5-5-5-5-5-5-5-|
|-1-1-1-1-1-1-1-1--5-5-5-5-5-5-5-5-1-1-1-1-1-1-1-1--5-5-5-5-5-5-5-5-|

then
|-------------------------------------------------------------------|
|-------------------------------------------------------------------|
|-------------------------------------------------------------------|
|-1-1-3p1-3/5p3-1-1-3-1-3/5--1-1-3p1-3/5p3-1-1-3p1-3p5p3------------|
|-1-1-3p1-3/5p3-1-1-3-1-3/5--1-1-3p1-3/5p3-1-1-3p1-3p5p3------------|
|-1-1-3p1-3/5p3-1-1-3-1-3/5--1-1-3p1-3/5p3-1-1-3p1-3p5p3------------|

Verse-
GtrI
|-------------------------------------------------------------------|
|-------------------------------------------------------------------|
|-------------------------------------------------------------------|
|-6~------------------------------1-1-1-1-1-1-1-1-1-1-1-1-1-1-1-1---|
|-6~-6666666666666-66666666666666-1-1-1-1-1-1-1-1-1-1-1-1-1-1-1-1---|
|-6--6666666666666-66666666666666-1-1-1-1-1-1-1-1-1-1-1-1-1-1-1-1---|
 
|-------------------------------------------------------------------|
|-------------------------------------------------------------------|
|-------------------------------------------------------------------|
|-6------------------------------------------------3----------------|
|-6--6-6-6-6-6-6-6-6-6-6-6-6-6-6--3--3-3-3-3-3-3-3-3----------------|
|-6--6-6-6-6-6-6-6-6-6-6-6-6-6-6--3--3-3-3-3-3-3-3-3----------------|

GtrI 

|-------------------------------------------------------------------|
|---3-4--3-4---3-4--3-4--3-4---3--4---34---34--34--34----6~--4-3~---|
|-3-----3-----3----3----3--------3---3---3---3----3-----------------|
|-------------------------------------------------------------------|
|-------------------------------------------------------------------|
|-------------------------------------------------------------------|

Chorus-

Chorus-
|-------------------------------------------------------------------|
|-------------------------------------------------------------------|
|-------------------------------------------------------------------|
|-1-1-1-1-1-1-1-1--5-5-5-5-5-5-5-5-1-1-1-1-1-1-1-1--5-5-5-5-5-5-5-5-|
|-1-1-1-1-1-1-1-1--5-5-5-5-5-5-5-5-1-1-1-1-1-1-1-1--5-5-5-5-5-5-5-5-|
|-1-1-1-1-1-1-1-1--5-5-5-5-5-5-5-5-1-1-1-1-1-1-1-1--5-5-5-5-5-5-5-5-|

|-----------------------------------------------------------------------|
|-----------------------------------------------------------------------|
|-----------------------------------------------------------------------|
|-3-3-3-3-3-3-3-3-3-6-6-6-6-6-6-6-6-6-6-6-6-6-6-6-6-6-1-1-1-1-1-1-1-1-1-|
|-3-3-3-3-3-3-3-3-3-6-6-6-6-6-6-6-6-6-6-6-6-6-6-6-6-6-1-1-1-1-1-1-1-1-1-|
|-3-3-3-3-3-3-3-3-3-6-6-6-6-6-6-6-6-6-6-6-6-6-6-6-6-6-1-1-1-1-1-1-1-1-1-|

|---------------------------------------------|
|---------------------------------------------|
|-------777-------888-------777-10101010-8-7--|
|-33333-----33333-----33333-------------------|
|-33333-555-33333-666-33333-555-8-8-8-8--6-5--|
|-33333-----33333-----33333-------------------|


|-------------------------------------------------------------------|
|-------------------------------------------------------------------|
|-------------------------------------------------------------------|
|--6666666666-101010101010101010101--333333333333-66666666666-------|
|--6666666666-101010101010101010101--333333333333-66666666666-------|
|--6666666666-101010101010101010101--333333333333-66666666666-------|

Interlude-
|-------------------------------------------------------------------|
|-------------------------------------------------------------------|
|-----------------------------------------7-888888------------------|
|--3-1/3-5/6--3-1/3-5/6---3-1/3-5/6---3-1---------------------------|
|--3-1/3-5/6--3-1/3-5/6---3-1/3-5/6---3-1-5-666666------------------|
|--3-1/3-5/6--3-1/3-5/6---3-1/3-5/6---3-1---------------------------|

|-------------------------------------------------------------------|
|-------------------------------------------------------------------|
|-----------------------------------------5-333333------------------|
|--3-1/3-5/6--3-1/3-5/6---3-1/3-5/6---3-1---------------------------|
|--3-1/3-5/6--3-1/3-5/6---3-1/3-5/6---3-1-3-111111------------------|
|--3-1/3-5/6--3-1/3-5/6---3-1/3-5/6---3-1---------------------------|

|-------------------------------------------------------------------|
|-------------------------------------------------------------------|
|------8------------------------8--------7-888888-------------------|
|--5h6---6-5-6-5--3h5p3-----5h6---6-5-------------------------------|
|-----------------------6----------------5-666666-------------------|
|-------------------------------------------------------------------|


|-------------------------------------------------------------------|
|-------------------------------------------------------------------|
|------8------------------------8--------5-333333-------------------|
|--5h6---6-5-6-5--3h5p3-----5h6---6-5-------------------------------|
|-----------------------6----------------3-111111-------------------|
|-------------------------------------------------------------------|
Tap to rate this tab
 
# A B C D E F G H I J K L M N O P Q R S T U V W X Y Z