Guitaretab - guitar tabs
Song name
# A B C D E F G H I J K L M N O P Q R S T U V W X Y Z

Franco - Seasons tab

//Seasons by Franco

Tabber: Jesnin Paraņal - Ateneo De Naga Highschool LG 4324  
Band: PORK CHOP!
10/4/11 9:25PM
 
Tuning: Drop C#
Db-Ab-Db-Gb-Bb-eb
C#-Ab-C#-F#-Bb-eb

Intro-

GtrI
|------------------------------------------------------------6~-----|
|------------------------------------------------------------7~-----|
|------------------------------------------------------------8~-----|
|-----------------------------------------------3x-----------6~-----|
|----------------4--4-4--6--6-6------------------------------6~-----|
|-2--2-2--4--4-4----------------6~-------6p4p0---------------6~-----|
GtrII
|--------------------------------------6---------------------6~-----|
|----------------6-----------------------7~------------------7~-----|
|-------------8-----8~---------------8-----------------------8~-----|
|----------6-----------------------6-------------------------6~-----|
|-------------------------------------------------------------------|
|-------------------------------------------------------------------|

then
|----------------------------------------------------|
|----------------------------------------------------|
|-----------------------------------------999--------|
|-----4-4--6-6--7-7--8-8---4-4--6-6--7-7-------------|
|-xx--4-4--6-6--7-7--8-8---4-4--6-6--7-7--777--------|
|-xx--4-4--6-6--7-7--8-8---4-4--6-6--7-7-------------|

|----------------------------------------------------|
|----------------------------------------------------|
|-----------------------------------------999--------|
|---4-4--6-6--7-7--8-7-6--4-4-4--6-6--7-7------------|
|---4-4--6-6--7-7--8-7-6--4-4-4--6-6--7-7-777--------|
|---4-4--6-6--7-7--8-7-6--4-4-4--6-6--7-7------------|

Verse
|-------------------------------------------------------------------|
|-------------------------------------------------------------------|
|---------------------------------4-4-4-4-4-4-4-4-4-4-4-4-4-4-4-4---|
|-7~---------------7--------------2-2-2-2-2-2-2-2-2-2-2-2-2-2-2-2---|
|-7~-7777777777777-77777777777777-2-2-2-2-2-2-2-2-2-2-2-2-2-2-2-2---|
|-7--7777777777777-77777777777777-2-2-2-2-2-2-2-2-2-2-2-2-2-2-2-2---|
     *************  *************
|-------------------------------------------------------------------|
|-------------------------------------------------------------------|
|-------------------------------------------------------------------|
|-7-------------------------------4----------------4----------------|
|-7--7-7-7-7-7-7-7-7-7-7-7-7-7-7--4--4-4-4-4-4-4-4-4----------------|
|-7--7-7-7-7-7-7-7-7-7-7-7-7-7-7--4--4-4-4-4-4-4-4-4----------------|
     * * * * * * * * * * * * * *      
Chorus-
|-------------------------------------------------------------------|
|-------------------------------------------------------------------|
|------------------8-8-8-8-8-8-8-8------------------8-8-8-8-8-8-8-8-|
|-2-2-2-2-2-2-2-2--6-6-6-6-6-6-6-6-2-2-2-2-2-2-2-2--6-6-6-6-6-6-6-6-|
|-2-2-2-2-2-2-2-2--6-6-6-6-6-6-6-6-2-2-2-2-2-2-2-2--6-6-6-6-6-6-6-6-|
|-2-2-2-2-2-2-2-2--6-6-6-6-6-6-6-6-2-2-2-2-2-2-2-2--6-6-6-6-6-6-6-6-|

then
|-------------------------------------------------------------------|
|-------------------------------------------------------------------|
|-------------------------------------------------------------------|
|-2-2-4p2-4/6p4-2--2-4-2-4/6---2-2-4p2-4/6p4-2--2-4-2-4/6p4---------|
|-2-2-4p2-4/6p4-2--2-4-2-4/6---2-2-4p2-4/6p4-2--2-4-2-4/6p4---------|4x
|-2-2-4p2-4/6p4-2--2-4-2-4/6---2-2-4p2-4/6p4-2--2-4-2-4/6p4---------|

Verse-
GtrI
|-------------------------------------------------------------------|
|-------------------------------------------------------------------|
|-------------------------------------------------------------------|
|-7~---------------4--------------2-2-2-2-2-2-2-2-2-2-2-2-2-2-2-2---|
|-7~-7777777777777-44444444444444-2-2-2-2-2-2-2-2-2-2-2-2-2-2-2-2---|
|-7--7777777777777-44444444444444-2-2-2-2-2-2-2-2-2-2-2-2-2-2-2-2---|
     *************  *************
|-------------------------------------------------------------------|
|-------------------------------------------------------------------|
|-------------------------------------------------------------------|
|-7------------------------------------------------4----------------|
|-7--7-7-7-7-7-7-7-7-7-7-7-7-7-7--4--4-4-4-4-4-4-4-4----------------|
|-7--7-7-7-7-7-7-7-7-7-7-7-7-7-7--4--4-4-4-4-4-4-4-4----------------|
     * * * * * * * * * * * * * *      


GtrI
|-------------------------------------------------------------------|
|-------------------------------------4-5--4-5---4-5--4-5--4-5------|
|-----------------------------------4-----4-----4----4----4---------|
|-7~----------------------------------------------------------------|
|-7~-7777777777777-44444444444444-----------------------------------|
|-7--7777777777777-44444444444444-----------------------------------|
     ************* **************



|-------------------------------------------------------------------|
|-4--5---45---45--45--45----7~--5-4~--------------------------------|
|---4---4---4---4----4----------------------------------------------|
|--------------------------------------------------------4----------|
|-------------------------------------4--4-4-4-4-4-4-4-4-4----------|
|-------------------------------------4--4-4-4-4-4-4-4-4-4----------|
          

Chorus-
|-----------------------------------|
|-----------------------------------|
|-----------------------------------|4x
|-2-2-2-2-2-2-2-2--6-6-6-6-6-6-6-6--|
|-2-2-2-2-2-2-2-2--6-6-6-6-6-6-6-6--|
|-2-2-2-2-2-2-2-2--6-6-6-6-6-6-6-6--|

|-----------------------------------------------------------------------|
|-----------------------------------------------------------------------|
|-----------------------------------------------------------------------|
|-4-4-4-4-4-4-4-4-4-6-6-6-6-6-6-6-6-6-6-6-6-6-6-6-6-6-2-2-2-2-2-2-2-2-2-|
|-4-4-4-4-4-4-4-4-4-6-6-6-6-6-6-6-6-6-6-6-6-6-6-6-6-6-2-2-2-2-2-2-2-2-2-|
|-4-4-4-4-4-4-4-4-4-6-6-6-6-6-6-6-6-6-6-6-6-6-6-6-6-6-2-2-2-2-2-2-2-2-2-|
[ Tab from: http://www.guitaretab.com/f/franco/294493.html ]
|---------------------------------------------|
|---------------------------------------------|
|-------888-------999-------888-11111111-9-8--|
|-44444-----44444-----44444-------------------|
|-44444-666-44444-777-44444-777-9-9-9-9--7-6--|
|-44444-----44444-----44444-------------------|


|-------------------------------------------------------------------|
|-------------------------------------------------------------------|
|-------------------------------------------------------------------|
|--7777777777-11111111111111111111--444444444444-77777777777--------|
|--7777777777-11111111111111111111--444444444444-77777777777--------|
|--7777777777-11111111111111111111--444444444444-77777777777--------|

Interlude-

GtrI 2x
|-------------------------------------------------------------------|
|-------------------------------------------------------------------|
|-----------------------------------------8-999999------------------|
|--4-2/4-6/7--4-2/4-6/7---4-2/4-6/7---4-2---------------------------|
|--4-2/4-6/7--4-2/4-6/7---4-2/4-6/7---4-2-6-777777------------------|
|--4-2/4-6/7--4-2/4-6/7---4-2/4-6/7---4-2---------------------------|

|-------------------------------------------------------------------|
|-------------------------------------------------------------------|
|-----------------------------------------6-444444------------------|
|--4-2/4-6/7--4-2/4-6/7---4-2/4-6/7---4-2---------------------------|
|--4-2/4-6/7--4-2/4-6/7---4-2/4-6/7---4-2-4-222222------------------|
|--4-2/4-6/7--4-2/4-6/7---4-2/4-6/7---4-2---------------------------|

GtrII
|-------------------------------------------------------------------|
|-------------------------------------------------------------------|
|------9------------------------9--------8-888888-------------------|
|--6h7---7-6-7-6--4h6p4-----6h7---7-6-------------------------------|
|-----------------------7----------------6-777777-------------------|
|-------------------------------------------------------------------|

|-------------------------------------------------------------------|
|-------------------------------------------------------------------|
|------9------------------------9--------6-444444-------------------|
|--6h7---7-6-7-6--4h6p4-----6h7---7-6-------------------------------|
|-----------------------7----------------4-222222-------------------|
|-------------------------------------------------------------------|

Bridge-

|-------------------------------------------------------------------|
|-------------------------------------------------------------------|
|--4-4-4-4-4-4-4-4--------------------------------------------------|
|--4-4-4-4-4-4-4-4-6-6-6-6-6-6-6-6-7-7-7-7-7-7-7-7-6-6-6-6-6-6-6-6--|
|--4-4-4-4-4-4-4-4-6-6-6-6-6-6-6-6-7-7-7-7-7-7-7-7-6-6-6-6-6-6-6-6--|
|--4-4-4-4-4-4-4-4-6-6-6-6-6-6-6-6-7-7-7-7-7-7-7-7-6-6-6-6-6-6-6-6--|


|--------------------------------------------------------------------|
|--------------------------------------------------------------------|
|--------------------------------------------------------------------|
|--4-4-4-4-4-4-4-4-6-6-6-6-6-6-6-6-7-7-7-7-7-7-7-7-6-6-6-6-6-6-6-6-6-|
|--4-4-4-4-4-4-4-4-6-6-6-6-6-6-6-6-7-7-7-7-7-7-7-7-6-6-6-6-6-6-6-6-6-|
|--4-4-4-4-4-4-4-4-6-6-6-6-6-6-6-6-7-7-7-7-7-7-7-7-6-6-6-6-6-6-6-6-6-|

Chorus-
|----------------------------------|
|----------------------------------|
|----------------------------------|
|-2-2-2-2-2-2-2-2--6-6-6-6-6-6-6-6-|3x
|-2-2-2-2-2-2-2-2--6-6-6-6-6-6-6-6-|
|-2-2-2-2-2-2-2-2--6-6-6-6-6-6-6-6-|

|-------------------------------------|
|-------------------------------------|
|-------------------------------------|
|-4-4-4-4-4-4-4-4-4-7-7-7-7-7-7-7-7-7-|
|-4-4-4-4-4-4-4-4-4-7-7-7-7-7-7-7-7-7-|
|-4-4-4-4-4-4-4-4-4-7-7-7-7-7-7-7-7-7-|

Outro-
GtrI 
|-------------------------------------------------------------------|
|-------------------------------------------------------------------|
|-----------------------------------------8-999999------------------|
|--4-2/4-6/7--4-2/4-6/7---4-2/4-6/7---4-2---------------------------|
|--4-2/4-6/7--4-2/4-6/7---4-2/4-6/7---4-2-6-777777------------------|
|--4-2/4-6/7--4-2/4-6/7---4-2/4-6/7---4-2---------------------------|

|-------------------------------------------------------------------|
|-------------------------------------------------------------------|
|-----------------------------------------6-444444------------------|
|--4-2/4-6/7--4-2/4-6/7---4-2/4-6/7---4-2---------------------------|
|--4-2/4-6/7--4-2/4-6/7---4-2/4-6/7---4-2-4-222222------------------|
|--4-2/4-6/7--4-2/4-6/7---4-2/4-6/7---4-2---------------------------|

|-------------------------------------------------------------------|
|-------------------------------------------------------------------|
|-----------------------------------------8-999999------------------|
|--4-2/4-6/7--4-2/4-6/7---4-2/4-6/7---4-2---------------------------|
|--4-2/4-6/7--4-2/4-6/7---4-2/4-6/7---4-2-6-777777------------------|
|--4-2/4-6/7--4-2/4-6/7---4-2/4-6/7---4-2---------------------------|

|-------------------------------------------------------------------|
|-------------------------------------------------------------------|
|-------------------------------------------------------------------|
|--4-2/4-6/7--4-2/4-6/7---4-2/4-6/7---4------------2~---------------|
|--4-2/4-6/7--4-2/4-6/7---4-2/4-6/7---4------------2~---------------|
|--4-2/4-6/7--4-2/4-6/7---4-2/4-6/7---4------------2~---------------|

GtrII
|-------------------------------------------------------------------|
|-------------------------------------------------------------------|
|------9------------------------9--------8-999999-------------------|
|--6h7---7-6-7-6--4h6p4-----6h7---7-6-------------------------------|
|-----------------------7----------------6-777777-------------------|
|-------------------------------------------------------------------|

|-------------------------------------------------------------------|
|-------------------------------------------------------------------|
|------9------------------------9--------6-444444-------------------|
|--6h7---7-6-7-6--4h7p4-----6h7---7-6-------------------------------|
|-----------------------7----------------4-222222-------------------|
Related for Seasons tab
Seasons chords by Franco