Song name
# A B C D E F G H I J K L M N O P Q R S T U V W X Y Z

Franco - Song For The Suspect tab

FRANCO REYES
SONG FOR THE SUSPECT

Tuning Drop D
h - hammer on
p - Pull off
s - slide
* - natural Harmonics

I. INTRO

Guitar I

e |--------------------------------------------------------------------|
B |--------------------------------------------------------------------|
G |--------------------------------------------------------------------|
D |-3363-3-363------------3363-3-363-4--3363-3-36363636--3363-3-363-4s0|
A |-3363-3-363-3-3h4p3----3363-3-363-4--3363-3-36363636--3363-3-363-4s0|
E |-3363-3-363--------3-6-3363-3-363-4--3363-3-36363636--3363-3-363-4s0|





e |------------9---|                          
B |-xx6xx6xx6xx9---|
G |-xx5xx5xx5xx10--|(repeat x8)
D |-xx3xx3xx3xx----|
A |----------------| 
E |----------------|

end with (Before 1st verse, 8th repeat)

e |--------------|                          
B |-xx6xx6xx6xx--|
G |-xx5xx5xx5xx--|
D |-xx3xx3xx3xx--|
A |--------------| 
E |--------------|


GUITAR II


e |----------------------------------------------------------------------|
B |----------------------------------------------------------------------|
G |----------------------------------------------------------------------|
D |-3363-3-36363636-3363-3-36363s4-3363-3-36363-----36--3363-3-3633-4s0--|
A |-3363-3-36363636-3363-3-36363s4-3363-3-36363h4p3-36--3363-3-3633-4s0--|
E |-3363-3-36363636-3363-3-36363s4-3363-3-36363-----36--3363-3-3633-4s0--|
                                             *let ring


e |--------------------------------------------------------------------|
B |--------------------------------------------------------------------|
G |--------------------------------------------------------------------|
D |--------------------------------------------------------------------|
A |---------------3h4p3-----------------4------------------3h4p3-------|
E |-3-33-6-3-3-336-----6-3-33-6-3-3-3336-----3-33-6-3-3-3-6------------|



e |--------------------------------------------------------------------|
B |--------------------------------------------------------------------|
G |--------------------------------------------------------------------|
D |--------------------------------------------------------------------|
A |--------------4-4p3------------------3h4p3------------------4-------|
E |--3-33-6-3-3-3------6--3-33-6-3-3-3-6--------3-33-6-3-3-3336--------|

e |---------------------------------------|
B |---------------------------------------|
G |---------------------------------------|
D |---------------------------------------|
A |---------------3h4p3-------------------|
E |-3-33-6-3-3-3-6-----6-3-33-6-3-3-3331--|



II Verse

-Clean Part

Guitar II (Delay effects. If you don't have 'em, play each note repeatedly.)

e |--------------------------|
B |---6------4----2---1--1---|
G |--5------5----5---1--1----|
D |-3------3----3---3--------|
A |--------------------------|
E |--------------------------|


-Heavy Breakdown part

Guitar I & 2
e |-----------------------------5*5*-----------------------------|
B |-----------------------------5*5*-----------------------------|
G |------------------------5*5*----------------------------------|
D |--3-4-3-34643-4-3-------5*5*-------3-4-3-34643-4-3-1-1-1-1-4-4|
A |--3-4-3-34643-4-3--5*5*------------3-4-3-34643-4-3-1-1-1-1-4-4|
E |--3-4-3-34643-4-3--5*5*------------3-4-3-34643-4-3-1-1-1-1-4-4|

e |-----------------------------5*5*-----------------------------|
B |-----------------------------5*5*-----------------------------|
G |------------------------5*5*----------------------------------|
D |--3-4-3-34643-4-3-------5*5*-------3-4-3-34643-4-3-1-1-1-1-3--|
A |--3-4-3-34643-4-3--5*5*------------3-4-3-34643-4-3-1-1-1-1-3--|
E |--3-4-3-34643-4-3--5*5*------------3-4-3-34643-4-3-1-1-1-1-3--|


**Repeat Clean Part**

Chorus - Bridge
Guitar I
e |------------------------------------------------------------------------|
B |------------------------------------------------------------------------|
G |------888888888s10101010101010-8s6--------------------------------------|
D |-6-6--xxxxxxxxxxx-x-x-x-x-x-x--xxx---33333333-66666666-33333333-88888888|
A |-4-4--666666666s8-8-8-8-8-8-8 s6s4---33333333-66666666-11111111-88888888|
E |-6-6---------------------------------33333333-66666666-33333333-88888888|
 
                                                        After Chorus
e |-------------------------------------------------------------------------|
B |-------------------------------------------------------------------------|
G |---------------------------------------------------------6-5-6-5-6-------|
D |--66666666-33333333-66666666-333333333-8888888888s0--3h6-----------6p5p3-|
A |--44444444-33333333-66666666-111111111-8888888888s0----------------------|
E |--66666666-33333333-66666666-333333333-8888888888s0----------------------|

e |-------------------------------------------------------------------------|
B |-------------------------------------------------------------------------|
G |--------5-6-5-6--------5--------6-5-6-5-6--------------6-5-6-4-6---------|
D |-3h6----3-3-3-3--5p3h6-3-----3h6----------6p5p3----3h6------------6s0----|
A |-------------------------------------------------------------------------|
E |-------------------------------------------------------------------------|

e |------------------------------------------------------------------------|
B |------------------------------------------------------------------------|
G |-------6-5-6-5-6---------------5-6-5-6-------5-------6-5-6-5-6----------|
D |-5p3h5-6-6-6-6-6--6p5p3---3h6--3-3-3-3-5p4h6-3---3h6------------6p5p3---|
A |------------------------------------------------------------------------|
E |------------------------------------------------------------------------|

e |-------------------|
B |-------------------|
G |-------6-5-6-5-6666|
D |---3h6-3-3-3-3-3333| then.. 
A |-------------------|
E |-------------------|

e |------------------------------------------------------------------------|
B |------------------------------------------------------------------------|
G |------888888888s10101010101010-8s6--------------------------------------|
D |-6-6--xxxxxxxxxxx-x-x-x-x-x-x--xxx---33333333-66666666-33333333-88888888|
A |-4-4--666666666s8-8-8-8-8-8-8 s6s4---33333333-66666666-11111111-88888888|
E |-6-6---------------------------------33333333-66666666-33333333-88888888|

                                          Bridge v
e |-------------------------------------------------------------------------|
B |-------------------------------------------------------------------------|
G |-------------------------------------------------------------------------|
D |--66666666-33333333-66666666-333333333-66666666--888888888-11111111111111|
A |--44444444-33333333-66666666-111111111-66666666--888888888-11111111111111|
E |--66666666-33333333-66666666-333333333-66666666--888888888-11111111111111|
                                         (divided we fall..)  ^ elevens. :))
e |-------------------------------------------------------------------------|
B |-------------------------------------------------------------------------|
G |-----------------------------------------------------------55s6-8-10-10-8|
D |-11-11-11-11-11-11-11-11-11-11--888888888-666666-444444444-xx-x-x-x--x--x|
A |-10-10-10-10-10-10-10-10-10-10--888888888-666666-444444444-33s4-6-8--8--6|
E |-11-11-11-11-11-11-11-11-11-11--888888888-666666-444444444---------------|
                                                       strum 8x10 eight times


e |-------------------------|
B |-------------------------|
G |-----------55s6-8-10-10-8|
D |-444444444-xx-x-x-x--x--x|  x2
A |-444444444-33s4-6-8--8--6|
E |-444444444---------------|






I'll post the other parts next time. :bd
Tap to rate this tab
 
# A B C D E F G H I J K L M N O P Q R S T U V W X Y Z