Song name
# A B C D E F G H I J K L M N O P Q R S T U V W X Y Z

Franco - Song For The Suspect tab

Song For The Suspect
Franco
Franco

Tabbed by Lec Segundo

Tuning: Half Step Down (Eb Ab Db Gb Bb eb)

Legend:

~ - Let Ring
x - Ghost Note
\ - Slide Up
h - Hammer
p - Pulloff
! - Play once but don't ring

______________________________________________________________

INTRO

eb|-------------------------------------------------|
Bb|-------------------------------------------------|
Gb|-------------------------------------------------|
Db|-4-4h7-4-4--4h7-4h5-4h7-4h5-4--4h7-4-4-4h7-4-4h5-|
Ab|-4-4h7-4-4--4h7-4h5-4h7-4h5-4--4h7-4-4-4h7-4-4h5-|
Db|-4-4h7-4-4--4h7-4h5-4h7-4h5-4--4h7-4-4-4h7-4-4h5-|

INTRO II

Guitar 1

eb|----------------------------------------------|
Bb|----------------------------------------------|
Gb|----------------------------------------------|
Db|----------------------------------------------|
Ab|-----------------4h5p4~------------------5~---|
Db|-4-44-74--4-4--7--------4-44-74--4-4--47------|

eb|----------------------------------------------|
Bb|----------------------------------------------|
Gb|----------------------------------------------|
Db|----------------------------------------------|
Ab|-----------------4h5p4~------------------54---|
Db|-4-44-74--4-4--7--------4-44-74--4-4--47----7-|

eb|----------------------------------------------|
Bb|----------------------------------------------|
Gb|----------------------------------------------|
Db|----------------------------------------------|
Ab|-----------------4h5p4~------------------5~---|
Db|-4-44-74--4-4--7--------4-44-74--4-4--47------|

eb|-------------------------------------------------|
Bb|-------------------------------------------------|
Gb|-------------------------------------------------|
Db|------------------------------------------4-4--2-|
Ab|-----------------4h5p4~-------------------4-4--2-|
Db|-4-44-74--4-4--7--------4-44-74--4-4--47--4-4--2-|

Guitar 2

Eb|-----------------------------------------|
Bb|----7--7--7--99--------7--------55-------|
Gb|----6--6--6--88--x3----6--------44-------|   2x
Db|----4--4--4--66--------4--------22-------| 
Ab|-----------------------------------------|
Db|-----------------------------------------|

VERSE (w/ Delay)

eb|----------------------------------------------|
Bb|----7~~------5~~------4~~-----2~~--1-2-3\~~---|
Gb|-66------66-------66-------44-----------------|
Db|----------------------------------------------|
Ab|----------------------------------------------|
Db|----------------------------------------------|

eb|----------------------------------------------|
Bb|----7~~------5~~------4~~-----2~~--3-2/3~~----|
Gb|-66------66-------66-------44-----------------|
Db|----------------------------------------------|
Ab|----------------------------------------------|
Db|----------------------------------------------|

INTERLUDE

Guitar

eb|------------------------------------------|
Bb|------------------------------------------|
Gb|------------------------------------------|
Db|-4~-4454-44-44-44-45754-4454-44-44-44-422-|
Ab|-4~-4454-44-44-44-45754-4454-44-44-44-422-|
Db|-4~-4454-44-44-44-45754-4454-44-44-44-422-|
 
eb|---------------------------------7*7*7*-|
Bb|---------------------------------7*7*7*-|
Gb|---------------------------------7*7*7*-|
Db|-4~-445444444445754-44544444444---------|
Ab|-4~-445444444445754-44544444444---------|
Db|-4~-445444444445754-44544444444---------|

eb|------------------------------------------|
Bb|------------------------------------------|
Gb|------------------------------------------|
Db|-4~-4454-44-44-44-45754-4454-44-44-44-422-|
Ab|-4~-4454-44-44-44-45754-4454-44-44-44-422-|
Db|-4~-4454-44-44-44-45754-4454-44-44-44-422-|

eb|---------------------------------|
Bb|---------------------------------|
Gb|---------------------------------|
Db|-4~-445444444445754-445444445----|
Ab|-4~-445444444445754-445444445----|
Db|-4~-445444444445754-445444445----|

Guitar 2

eb|-----------------------------------|
Bb|-----------------------------------|
Gb|--idle-----------------------------|
Db|-----------------------------------|
Ab|-----------------------------------|
Db|-----------------------------------|

eb|-----------------------------------|
Bb|-----------------------------------|
Gb|--idle-----------------------------|
Db|-----------------------------------|
Ab|-----------------------------------|
Db|-----------------------------------|

Eb|-------------------------------------------------------------------------------|
Bb|-------------------------------------------------------------------------------|
Gb|--6~-66766666666-7/9/7\6--676666666644--6~-66766666666-7/9/7\6-6676666666644---|
Db|--x~-xxxxxxxxxxx-x/x/x\x--xxxxxxxxxxxx--x~-xxxxxxxxxxx-x/x/x\x-xxxxxxxxxxxxx---|
Ab|--4~-44544444444-5/7/5\4--454444444422--4~-44544444444-5/7/5\4-4454444444422---|
Db|-------------------------------------------------------------------------------|

Eb|----------------------------------------------------------------------------------|
Bb|----------------------------------------------------------------------------------|
Gb|--6~-66766666666-7/9/7\6--676666666644--6~-66766666666-7/9/7\6-6676666666644------|
Db|--x~-xxxxxxxxxxx-x/x/x\x--xxxxxxxxxxxx--x~-xxxxxxxxxxx-x/x/x\x-xxxxxxxxxxxxx--000-|
Ab|--4~-44544444444-5/7/5\4--454444444422--4~-44544444444-5/7/5\4-4454444444422--000-|
Db|------------------------------------------------------------------------------000-|

VERSE

eb|----------------------------------------------|
Bb|----7~~------5~~------4~~-----2~~--1-2-3\~~---|
Gb|-66------66-------66-------44-----------------|
Db|----------------------------------------------|
Ab|----------------------------------------------|
Db|----------------------------------------------|

eb|----------------------------------------------|
Bb|----7~~------5~~------4~~-----2~~--3-2/3~~----|
Gb|-66------66-------66-------44-----------------|
Db|----------------------------------------------|
Ab|----------------------------------------------|
Db|----------------------------------------------|

REFRAIN

eb|--------------------------------------|
Bb|--------------------------------------|
Gb|-------------8/99999/1111111111\999---|
Db|-0000000000--x/xxxxx/x-x-x-x-x-\xxx---|
Ab|-0000000000--5/77777/9-9-9-9-9-\777---|
Db|-0000000000---------------------------|

CHORUS  

eb|------------------------------------|
Bb|------------------------------------|
Gb|------------------------------------|
Db|-4-------7-------7-------4----------|
Ab|-4-------7-------5-(x8)--2-(x8)-----|
Db|-4-(x8)--7-(x8)---------------------|

Eb|------------------------------------|
Bb|------------------------------------|
Gb|------------------------------------|
Db|-0-------4-------7------4-----------|
Ab|-0-(x8)--4-(x8)--7-(x8)-2-(x8)------|
Db|-0-------4-------7------------------|

REPEAT INTRO II
REPEAT REFRAIN
REPEAT CHORUS

BRIDGE  

Eb|------------------------------------|
Bb|------------------------------------|
Gb|------------------------------------|
Db|-5--------4-------7-------6---------|
Ab|-5-(x8)---2-(x8)--5-(x8)--4-(x8)----|
Db|-5----------------------------------|

Eb|--------------------------|
Bb|--------------------------|
Gb|--------------------------|
Db|-4-------7-------4--------|
Ab|-2-(x8)--7-(x8)--4-(x8)---|
Db|---------7-------4--------|

eb|----------------------------------|
Bb|----------------------------------|
Gb|---------8/99999/1111111111\999---|  2x
Db|-5-------x/xxxxx/x-x-x-x-x-\xxx---|
Ab|-5-(x8)--5/77777/9-9-9-9-9-\777---|
Db|-5--------------------------------|

eb|--------------|
Bb|--------------|
Gb|--------------|
Db|-5-------5~---|
Ab|-5-(x8)--5~---|
Db|-5-------5~---|

NARRATION

Guitar 1 (w/Delay)

eb|-------------------------------------------|
Bb|-------------------------------------------|
Gb|-------------------------------------------|
Db|-14~--14~--9~--12~--11~--14~--14~--9~--12~-|
Ab|-12~--12~--9~--9~---9~---12~--12~--9~--9~--|
Db|-12~--11~--9~--9~---9~---12~--11~--9~--9~--|

Guitar 2

eb|-----------------------------------|
Bb|-----------------------------------|
Gb|--idle-----------------------------|
Db|-----------------------------------|
Ab|-----------------------------------|
Db|-----------------------------------|

eb|---------9~---------8h9p8~---------8-9---11~--------|
Bb|------10---------10-------------10-------10~--------|
Gb|-9h11-------9h11-----------9h11---------------------|
Db|------------------------------------------------x-x-|
Ab|------------------------------------------------x-x-|
Db|------------------------------------------------x-x-|

REPEAT CHORUS
REPEAT INTERLUDE

OUTRO

eb|--------------|
Bb|--------------|
Gb|--------------|
Db|--7-----------|
Ab|--7-----------|
Db|--7-----------|
Tap to rate this tab
# A B C D E F G H I J K L M N O P Q R S T U V W X Y Z